999
DXF created by Inkscape
  0
SECTION
  2
HEADER
  9
$ACADVER
  1
AC1014
  9
$HANDSEED
  5
FFFF
  9
$MEASUREMENT
 70
     1
  0
ENDSEC
  0
SECTION
  2
TABLES
  0
TABLE
  2
VPORT
  5
8
330
0
100
AcDbSymbolTable
 70
     4
  0
VPORT
  5
2E
330
8
100
AcDbSymbolTableRecord
100
AcDbViewportTableRecord
  2
*ACTIVE
 70
     0
 10
0.0
 20
0.0
 11
1.0
 21
1.0
 12
210.0
 22
148.5
 13
0.0
 23
0.0
 14
10.0
 24
10.0
 15
10.0
 25
10.0
 16
0.0
 26
0.0
 36
1.0
 17
0.0
 27
0.0
 37
0.0
 40
341.0
 41
1.24
 42
50.0
 43
0.0
 44
0.0
 50
0.0
 51
0.0
 71
     0
 72
   100
 73
     1
 74
     3
 75
     0
 76
     0
 77
     0
 78
     0
  0
ENDTAB
  0
TABLE
  2
LTYPE
  5
5
330
0
100
AcDbSymbolTable
 70
     1
  0
LTYPE
  5
14
330
5
100
AcDbSymbolTableRecord
100
AcDbLinetypeTableRecord
  2
BYBLOCK
 70
     0
  3

 72
    65
 73
     0
 40
0.0
  0
LTYPE
  5
15
330
5
100
AcDbSymbolTableRecord
100
AcDbLinetypeTableRecord
  2
BYLAYER
 70
     0
  3

 72
    65
 73
     0
 40
0.0
  0
LTYPE
  5
16
330
5
100
AcDbSymbolTableRecord
100
AcDbLinetypeTableRecord
  2
CONTINUOUS
 70
     0
  3
Solid line
 72
    65
 73
     0
 40
0.0
  0
ENDTAB
  0
TABLE
  2
LAYER
  5
2
330
0
100
AcDbSymbolTable
 70
1
  0
LAYER
  5
10
330
2
100
AcDbSymbolTableRecord
100
AcDbLayerTableRecord
  2
0
 70
     0
 62
     7
  6
CONTINUOUS
  0
ENDTAB
  0
TABLE
  2
STYLE
  5
3
330
0
100
AcDbSymbolTable
 70
     1
  0
STYLE
  5
11
330
3
100
AcDbSymbolTableRecord
100
AcDbTextStyleTableRecord
  2
STANDARD
 70
     0
 40
0.0
 41
1.0
 50
0.0
 71
     0
 42
2.5
  3
txt
  4

  0
ENDTAB
  0
TABLE
  2
VIEW
  5
6
330
0
100
AcDbSymbolTable
 70
     0
  0
ENDTAB
  0
TABLE
  2
UCS
  5
7
330
0
100
AcDbSymbolTable
 70
     0
  0
ENDTAB
  0
TABLE
  2
APPID
  5
9
330
0
100
AcDbSymbolTable
 70
     2
  0
APPID
  5
12
330
9
100
AcDbSymbolTableRecord
100
AcDbRegAppTableRecord
  2
ACAD
 70
     0
  0
ENDTAB
  0
TABLE
  2
DIMSTYLE
  5
A
330
0
100
AcDbSymbolTable
 70
     1
  0
DIMSTYLE
105
27
330
A
100
AcDbSymbolTableRecord
100
AcDbDimStyleTableRecord
  2
ISO-25
 70
     0
  3

  4

  5

  6

  7

 40
1.0
 41
2.5
 42
0.625
 43
3.75
 44
1.25
 45
0.0
 46
0.0
 47
0.0
 48
0.0
140
2.5
141
2.5
142
0.0
143
0.03937007874016
144
1.0
145
0.0
146
1.0
147
0.625
 71
     0
 72
     0
 73
     0
 74
     0
 75
     0
 76
     0
 77
     1
 78
     8
170
     0
171
     3
172
     1
173
     0
174
     0
175
     0
176
     0
177
     0
178
     0
270
     2
271
     2
272
     2
273
     2
274
     3
340
11
275
     0
280
     0
281
     0
282
     0
283
     0
284
     8
285
     0
286
     0
287
     3
288
     0
  0
ENDTAB
  0
TABLE
  2
BLOCK_RECORD
  5
1
330
0
100
AcDbSymbolTable
 70
     1
  0
BLOCK_RECORD
  5
1F
330
1
100
AcDbSymbolTableRecord
100
AcDbBlockTableRecord
  2
*MODEL_SPACE
  0
BLOCK_RECORD
  5
1B
330
1
100
AcDbSymbolTableRecord
100
AcDbBlockTableRecord
  2
*PAPER_SPACE
  0
ENDTAB
  0
ENDSEC
  0
SECTION
  2
BLOCKS
  0
BLOCK
  5
20
330
1F
100
AcDbEntity
  8
0
100
AcDbBlockBegin
  2
*MODEL_SPACE
 70
     0
 10
0.0
 20
0.0
 30
0.0
  3
*MODEL_SPACE
  1

  0
ENDBLK
  5
21
330
1F
100
AcDbEntity
  8
0
100
AcDbBlockEnd
  0
BLOCK
  5
1C
330
1B
100
AcDbEntity
 67
     1
  8
0
100
AcDbBlockBegin
  2
*PAPER_SPACE
  1

  0
ENDBLK
  5
1D
330
1B
100
AcDbEntity
 67
     1
  8
0
100
AcDbBlockEnd
  0
ENDSEC
  0
SECTION
  2
ENTITIES
  0
SPLINE
  5
100
100
AcDbEntity
  8
0
 62
7
100
AcDbSpline
 70
8
 71
3
 72
8
 73
4
 74
0
 40
0
 40
0
 40
0
 40
0
 40
1
 40
1
 40
1
 40
1
 10
113.281991
 20
128.431986
 30
0.0
 10
112.777518
 20
128.584603
 30
0.0
 10
112.364768
 20
128.847781
 30
0.0
 10
112.364768
 20
129.016826
 30
0.0
  0
SPLINE
  5
101
100
AcDbEntity
  8
0
 62
7
100
AcDbSpline
 70
8
 71
3
 72
8
 73
4
 74
0
 40
0
 40
0
 40
0
 40
0
 40
1
 40
1
 40
1
 40
1
 10
112.364768
 20
129.016826
 30
0.0
 10
112.364768
 20
129.382152
 30
0.0
 10
114.322301
 20
131.376856
 30
0.0
 10
114.847881
 20
131.547087
 30
0.0
  0
SPLINE
  5
102
100
AcDbEntity
  8
0
 62
7
100
AcDbSpline
 70
8
 71
3
 72
8
 73
4
 74
0
 40
0
 40
0
 40
0
 40
0
 40
1
 40
1
 40
1
 40
1
 10
114.847881
 20
131.547087
 30
0.0
 10
115.418921
 20
131.732044
 30
0.0
 10
116.639264
 20
136.222089
 30
0.0
 10
116.756931
 20
138.571110
 30
0.0
  0
SPLINE
  5
103
100
AcDbEntity
  8
0
 62
7
100
AcDbSpline
 70
8
 71
3
 72
8
 73
4
 74
0
 40
0
 40
0
 40
0
 40
0
 40
1
 40
1
 40
1
 40
1
 10
116.756931
 20
138.571110
 30
0.0
 10
116.815246
 20
139.735276
 30
0.0
 10
116.786666
 20
141.883834
 30
0.0
 10
116.693419
 20
143.345683
 30
0.0
  0
LINE
  5
104
100
AcDbEntity
  8
0
 62
7
100
AcDbLine
 10
116.693419
 20
143.345683
 30
0.0
 11
116.523877
 21
146.003590
 31
0.0
  0
LINE
  5
105
100
AcDbEntity
  8
0
 62
7
100
AcDbLine
 10
116.523877
 20
146.003590
 30
0.0
 11
115.981926
 21
144.615683
 31
0.0
  0
SPLINE
  5
106
100
AcDbEntity
  8
0
 62
7
100
AcDbSpline
 70
8
 71
3
 72
8
 73
4
 74
0
 40
0
 40
0
 40
0
 40
0
 40
1
 40
1
 40
1
 40
1
 10
115.981926
 20
144.615683
 30
0.0
 10
115.683851
 20
143.852334
 30
0.0
 10
115.329420
 20
142.656276
 30
0.0
 10
115.194300
 20
141.957776
 30
0.0
  0
SPLINE
  5
107
100
AcDbEntity
  8
0
 62
7
100
AcDbSpline
 70
8
 71
3
 72
8
 73
4
 74
0
 40
0
 40
0
 40
0
 40
0
 40
1
 40
1
 40
1
 40
1
 10
115.194300
 20
141.957776
 30
0.0
 10
114.712586
 20
139.467552
 30
0.0
 10
114.093114
 20
136.917705
 30
0.0
 10
113.515538
 20
135.047729
 30
0.0
  0
SPLINE
  5
108
100
AcDbEntity
  8
0
 62
7
100
AcDbSpline
 70
8
 71
3
 72
8
 73
4
 74
0
 40
0
 40
0
 40
0
 40
0
 40
1
 40
1
 40
1
 40
1
 10
113.515538
 20
135.047729
 30
0.0
 10
113.193060
 20
134.003665
 30
0.0
 10
112.929213
 20
132.598511
 30
0.0
 10
112.929213
 20
131.925163
 30
0.0
  0
SPLINE
  5
109
100
AcDbEntity
  8
0
 62
7
100
AcDbSpline
 70
8
 71
3
 72
8
 73
4
 74
0
 40
0
 40
0
 40
0
 40
0
 40
1
 40
1
 40
1
 40
1
 10
112.929213
 20
131.925163
 30
0.0
 10
112.929213
 20
130.546349
 30
0.0
 10
112.241827
 20
129.822221
 30
0.0
 10
110.932976
 20
129.822221
 30
0.0
  0
SPLINE
  5
10a
100
AcDbEntity
  8
0
 62
7
100
AcDbSpline
 70
8
 71
3
 72
8
 73
4
 74
0
 40
0
 40
0
 40
0
 40
0
 40
1
 40
1
 40
1
 40
1
 10
110.932976
 20
129.822221
 30
0.0
 10
109.945181
 20
129.822221
 30
0.0
 10
108.413657
 20
130.370861
 30
0.0
 10
108.413657
 20
130.724719
 30
0.0
  0
SPLINE
  5
10b
100
AcDbEntity
  8
0
 62
7
100
AcDbSpline
 70
8
 71
3
 72
8
 73
4
 74
0
 40
0
 40
0
 40
0
 40
0
 40
1
 40
1
 40
1
 40
1
 10
108.413657
 20
130.724719
 30
0.0
 10
108.413657
 20
131.062522
 30
0.0
 10
110.035292
 20
132.711251
 30
0.0
 10
110.760629
 20
133.110903
 30
0.0
  0
SPLINE
  5
10c
100
AcDbEntity
  8
0
 62
7
100
AcDbSpline
 70
8
 71
3
 72
8
 73
4
 74
0
 40
0
 40
0
 40
0
 40
0
 40
1
 40
1
 40
1
 40
1
 10
110.760629
 20
133.110903
 30
0.0
 10
111.070861
 20
133.281836
 30
0.0
 10
111.564056
 20
134.331587
 30
0.0
 10
112.010179
 20
135.770537
 30
0.0
  0
SPLINE
  5
10d
100
AcDbEntity
  8
0
 62
7
100
AcDbSpline
 70
8
 71
3
 72
8
 73
4
 74
0
 40
0
 40
0
 40
0
 40
0
 40
1
 40
1
 40
1
 40
1
 10
112.010179
 20
135.770537
 30
0.0
 10
112.732512
 20
138.100402
 30
0.0
 10
112.746113
 20
138.294001
 30
0.0
 10
112.692665
 20
145.485554
 30
0.0
  0
SPLINE
  5
10e
100
AcDbEntity
  8
0
 62
7
100
AcDbSpline
 70
8
 71
3
 72
8
 73
4
 74
0
 40
0
 40
0
 40
0
 40
0
 40
1
 40
1
 40
1
 40
1
 10
112.692665
 20
145.485554
 30
0.0
 10
112.651805
 20
150.982947
 30
0.0
 10
112.529120
 20
153.268278
 30
0.0
 10
112.203507
 20
154.597372
 30
0.0
  0
SPLINE
  5
10f
100
AcDbEntity
  8
0
 62
7
100
AcDbSpline
 70
8
 71
3
 72
8
 73
4
 74
0
 40
0
 40
0
 40
0
 40
0
 40
1
 40
1
 40
1
 40
1
 10
112.203507
 20
154.597372
 30
0.0
 10
111.855541
 20
156.017712
 30
0.0
 10
111.753227
 20
158.690472
 30
0.0
 10
111.690339
 20
168.002928
 30
0.0
  0
SPLINE
  5
110
100
AcDbEntity
  8
0
 62
7
100
AcDbSpline
 70
8
 71
3
 72
8
 73
4
 74
0
 40
0
 40
0
 40
0
 40
0
 40
1
 40
1
 40
1
 40
1
 10
111.690339
 20
168.002928
 30
0.0
 10
111.613710
 20
179.350728
 30
0.0
 10
111.593616
 20
179.719872
 30
0.0
 10
110.866563
 20
183.136821
 30
0.0
  0
SPLINE
  5
111
100
AcDbEntity
  8
0
 62
7
100
AcDbSpline
 70
8
 71
3
 72
8
 73
4
 74
0
 40
0
 40
0
 40
0
 40
0
 40
1
 40
1
 40
1
 40
1
 10
110.866563
 20
183.136821
 30
0.0
 10
110.038106
 20
187.030339
 30
0.0
 10
108.979586
 20
190.939244
 30
0.0
 10
108.092768
 20
193.379893
 30
0.0
  0
SPLINE
  5
112
100
AcDbEntity
  8
0
 62
7
100
AcDbSpline
 70
8
 71
3
 72
8
 73
4
 74
0
 40
0
 40
0
 40
0
 40
0
 40
1
 40
1
 40
1
 40
1
 10
108.092768
 20
193.379893
 30
0.0
 10
107.516600
 20
194.965589
 30
0.0
 10
107.497945
 20
194.983327
 30
0.0
 10
106.851780
 20
194.559943
 30
0.0
  0
SPLINE
  5
113
100
AcDbEntity
  8
0
 62
7
100
AcDbSpline
 70
8
 71
3
 72
8
 73
4
 74
0
 40
0
 40
0
 40
0
 40
0
 40
1
 40
1
 40
1
 40
1
 10
106.851780
 20
194.559943
 30
0.0
 10
106.490965
 20
194.323525
 30
0.0
 10
105.192133
 20
193.954887
 30
0.0
 10
103.965491
 20
193.740745
 30
0.0
  0
SPLINE
  5
114
100
AcDbEntity
  8
0
 62
7
100
AcDbSpline
 70
8
 71
3
 72
8
 73
4
 74
0
 40
0
 40
0
 40
0
 40
0
 40
1
 40
1
 40
1
 40
1
 10
103.965491
 20
193.740745
 30
0.0
 10
102.738846
 20
193.526600
 30
0.0
 10
101.110624
 20
193.108214
 30
0.0
 10
100.347221
 20
192.810998
 30
0.0
  0
SPLINE
  5
115
100
AcDbEntity
  8
0
 62
7
100
AcDbSpline
 70
8
 71
3
 72
8
 73
4
 74
0
 40
0
 40
0
 40
0
 40
0
 40
1
 40
1
 40
1
 40
1
 10
100.347221
 20
192.810998
 30
0.0
 10
97.066283
 20
191.533629
 30
0.0
 10
95.382580
 20
191.761670
 30
0.0
 10
93.526435
 20
193.734810
 30
0.0
  0
SPLINE
  5
116
100
AcDbEntity
  8
0
 62
7
100
AcDbSpline
 70
8
 71
3
 72
8
 73
4
 74
0
 40
0
 40
0
 40
0
 40
0
 40
1
 40
1
 40
1
 40
1
 10
93.526435
 20
193.734810
 30
0.0
 10
92.156528
 20
195.191065
 30
0.0
 10
92.016464
 20
196.034334
 30
0.0
 10
92.961991
 20
197.133110
 30
0.0
  0
SPLINE
  5
117
100
AcDbEntity
  8
0
 62
7
100
AcDbSpline
 70
8
 71
3
 72
8
 73
4
 74
0
 40
0
 40
0
 40
0
 40
0
 40
1
 40
1
 40
1
 40
1
 10
92.961991
 20
197.133110
 30
0.0
 10
93.490745
 20
197.747564
 30
0.0
 10
93.927529
 20
197.904036
 30
0.0
 10
95.572546
 20
198.068307
 30
0.0
  0
LINE
  5
118
100
AcDbEntity
  8
0
 62
7
100
AcDbLine
 10
95.572546
 20
198.068307
 30
0.0
 11
97.548102
 21
198.265588
 31
0.0
  0
LINE
  5
119
100
AcDbEntity
  8
0
 62
7
100
AcDbLine
 10
97.548102
 20
198.265588
 30
0.0
 11
96.864926
 21
198.827792
 31
0.0
  0
SPLINE
  5
11a
100
AcDbEntity
  8
0
 62
7
100
AcDbSpline
 70
8
 71
3
 72
8
 73
4
 74
0
 40
0
 40
0
 40
0
 40
0
 40
1
 40
1
 40
1
 40
1
 10
96.864926
 20
198.827792
 30
0.0
 10
96.489179
 20
199.137006
 30
0.0
 10
95.877693
 20
199.703181
 30
0.0
 10
95.506069
 20
200.085959
 30
0.0
  0
SPLINE
  5
11b
100
AcDbEntity
  8
0
 62
7
100
AcDbSpline
 70
8
 71
3
 72
8
 73
4
 74
0
 40
0
 40
0
 40
0
 40
0
 40
1
 40
1
 40
1
 40
1
 10
95.506069
 20
200.085959
 30
0.0
 10
94.861177
 20
200.750202
 30
0.0
 10
94.853726
 20
200.799803
 30
0.0
 10
95.342577
 20
201.174413
 30
0.0
  0
SPLINE
  5
11c
100
AcDbEntity
  8
0
 62
7
100
AcDbSpline
 70
8
 71
3
 72
8
 73
4
 74
0
 40
0
 40
0
 40
0
 40
0
 40
1
 40
1
 40
1
 40
1
 10
95.342577
 20
201.174413
 30
0.0
 10
96.466993
 20
202.036069
 30
0.0
 10
97.785623
 20
202.388720
 30
0.0
 10
99.628706
 20
202.320687
 30
0.0
  0
SPLINE
  5
11d
100
AcDbEntity
  8
0
 62
7
100
AcDbSpline
 70
8
 71
3
 72
8
 73
4
 74
0
 40
0
 40
0
 40
0
 40
0
 40
1
 40
1
 40
1
 40
1
 10
99.628706
 20
202.320687
 30
0.0
 10
101.374468
 20
202.256247
 30
0.0
 10
101.505371
 20
202.293763
 30
0.0
 10
101.591536
 20
202.883249
 30
0.0
  0
SPLINE
  5
11e
100
AcDbEntity
  8
0
 62
7
100
AcDbSpline
 70
8
 71
3
 72
8
 73
4
 74
0
 40
0
 40
0
 40
0
 40
0
 40
1
 40
1
 40
1
 40
1
 10
101.591536
 20
202.883249
 30
0.0
 10
101.642314
 20
203.230631
 30
0.0
 10
101.489820
 20
203.810993
 30
0.0
 10
101.252666
 20
204.172937
 30
0.0
  0
SPLINE
  5
11f
100
AcDbEntity
  8
0
 62
7
100
AcDbSpline
 70
8
 71
3
 72
8
 73
4
 74
0
 40
0
 40
0
 40
0
 40
0
 40
1
 40
1
 40
1
 40
1
 10
101.252666
 20
204.172937
 30
0.0
 10
100.860132
 20
204.772021
 30
0.0
 10
100.866499
 20
204.871770
 30
0.0
 10
101.323676
 20
205.285511
 30
0.0
  0
SPLINE
  5
120
100
AcDbEntity
  8
0
 62
7
100
AcDbSpline
 70
8
 71
3
 72
8
 73
4
 74
0
 40
0
 40
0
 40
0
 40
0
 40
1
 40
1
 40
1
 40
1
 10
101.323676
 20
205.285511
 30
0.0
 10
101.918050
 20
205.823412
 30
0.0
 10
102.930624
 20
205.881575
 30
0.0
 10
103.231290
 20
205.395086
 30
0.0
  0
SPLINE
  5
121
100
AcDbEntity
  8
0
 62
7
100
AcDbSpline
 70
8
 71
3
 72
8
 73
4
 74
0
 40
0
 40
0
 40
0
 40
0
 40
1
 40
1
 40
1
 40
1
 10
103.231290
 20
205.395086
 30
0.0
 10
103.348533
 20
205.205385
 30
0.0
 10
103.412028
 20
204.601000
 30
0.0
 10
103.372389
 20
204.052008
 30
0.0
  0
SPLINE
  5
122
100
AcDbEntity
  8
0
 62
7
100
AcDbSpline
 70
8
 71
3
 72
8
 73
4
 74
0
 40
0
 40
0
 40
0
 40
0
 40
1
 40
1
 40
1
 40
1
 10
103.372389
 20
204.052008
 30
0.0
 10
103.303157
 20
203.093138
 30
0.0
 10
103.348203
 20
203.041796
 30
0.0
 10
104.516434
 20
202.747808
 30
0.0
  0
SPLINE
  5
123
100
AcDbEntity
  8
0
 62
7
100
AcDbSpline
 70
8
 71
3
 72
8
 73
4
 74
0
 40
0
 40
0
 40
0
 40
0
 40
1
 40
1
 40
1
 40
1
 10
104.516434
 20
202.747808
 30
0.0
 10
105.185295
 20
202.579488
 30
0.0
 10
105.951057
 20
202.346220
 30
0.0
 10
106.218124
 20
202.229436
 30
0.0
  0
SPLINE
  5
124
100
AcDbEntity
  8
0
 62
7
100
AcDbSpline
 70
8
 71
3
 72
8
 73
4
 74
0
 40
0
 40
0
 40
0
 40
0
 40
1
 40
1
 40
1
 40
1
 10
106.218124
 20
202.229436
 30
0.0
 10
106.592745
 20
202.065618
 30
0.0
 10
106.798389
 20
202.232851
 30
0.0
 10
107.118105
 20
202.961326
 30
0.0
  0
SPLINE
  5
125
100
AcDbEntity
  8
0
 62
7
100
AcDbSpline
 70
8
 71
3
 72
8
 73
4
 74
0
 40
0
 40
0
 40
0
 40
0
 40
1
 40
1
 40
1
 40
1
 10
107.118105
 20
202.961326
 30
0.0
 10
107.346028
 20
203.480652
 30
0.0
 10
107.606186
 20
204.254804
 30
0.0
 10
107.696237
 20
204.681665
 30
0.0
  0
SPLINE
  5
126
100
AcDbEntity
  8
0
 62
7
100
AcDbSpline
 70
8
 71
3
 72
8
 73
4
 74
0
 40
0
 40
0
 40
0
 40
0
 40
1
 40
1
 40
1
 40
1
 10
107.696237
 20
204.681665
 30
0.0
 10
107.883616
 20
205.569883
 30
0.0
 10
108.520704
 20
205.690183
 30
0.0
 10
109.479749
 20
205.018441
 30
0.0
  0
SPLINE
  5
127
100
AcDbEntity
  8
0
 62
7
100
AcDbSpline
 70
8
 71
3
 72
8
 73
4
 74
0
 40
0
 40
0
 40
0
 40
0
 40
1
 40
1
 40
1
 40
1
 10
109.479749
 20
205.018441
 30
0.0
 10
110.314235
 20
204.433945
 30
0.0
 10
110.271213
 20
204.058722
 30
0.0
 10
109.260324
 20
203.104605
 30
0.0
  0
SPLINE
  5
128
100
AcDbEntity
  8
0
 62
7
100
AcDbSpline
 70
8
 71
3
 72
8
 73
4
 74
0
 40
0
 40
0
 40
0
 40
0
 40
1
 40
1
 40
1
 40
1
 10
109.260324
 20
203.104605
 30
0.0
 10
108.346624
 20
202.242215
 30
0.0
 10
108.100966
 20
201.326286
 30
0.0
 10
108.861662
 20
201.618191
 30
0.0
  0
SPLINE
  5
129
100
AcDbEntity
  8
0
 62
7
100
AcDbSpline
 70
8
 71
3
 72
8
 73
4
 74
0
 40
0
 40
0
 40
0
 40
0
 40
1
 40
1
 40
1
 40
1
 10
108.861662
 20
201.618191
 30
0.0
 10
110.845191
 20
202.379344
 30
0.0
 10
112.949567
 20
202.121675
 30
0.0
 10
114.617511
 20
200.913426
 30
0.0
  0
LINE
  5
12a
100
AcDbEntity
  8
0
 62
7
100
AcDbLine
 10
114.617511
 20
200.913426
 30
0.0
 11
115.808004
 21
200.051036
 31
0.0
  0
LINE
  5
12b
100
AcDbEntity
  8
0
 62
7
100
AcDbLine
 10
115.808004
 20
200.051036
 30
0.0
 11
115.172752
 21
199.374843
 31
0.0
  0
SPLINE
  5
12c
100
AcDbEntity
  8
0
 62
7
100
AcDbSpline
 70
8
 71
3
 72
8
 73
4
 74
0
 40
0
 40
0
 40
0
 40
0
 40
1
 40
1
 40
1
 40
1
 10
115.172752
 20
199.374843
 30
0.0
 10
114.294133
 20
198.439595
 30
0.0
 10
112.354137
 20
197.752590
 30
0.0
 10
110.965674
 20
197.885001
 30
0.0
  0
SPLINE
  5
12d
100
AcDbEntity
  8
0
 62
7
100
AcDbSpline
 70
8
 71
3
 72
8
 73
4
 74
0
 40
0
 40
0
 40
0
 40
0
 40
1
 40
1
 40
1
 40
1
 10
110.965674
 20
197.885001
 30
0.0
 10
110.242960
 20
197.953922
 30
0.0
 10
109.860802
 20
197.886694
 30
0.0
 10
109.942125
 20
197.704714
 30
0.0
  0
SPLINE
  5
12e
100
AcDbEntity
  8
0
 62
7
100
AcDbSpline
 70
8
 71
3
 72
8
 73
4
 74
0
 40
0
 40
0
 40
0
 40
0
 40
1
 40
1
 40
1
 40
1
 10
109.942125
 20
197.704714
 30
0.0
 10
112.875712
 20
191.142997
 30
0.0
 10
114.440143
 20
186.555901
 30
0.0
 10
115.864372
 20
180.339999
 30
0.0
  0
SPLINE
  5
12f
100
AcDbEntity
  8
0
 62
7
100
AcDbSpline
 70
8
 71
3
 72
8
 73
4
 74
0
 40
0
 40
0
 40
0
 40
0
 40
1
 40
1
 40
1
 40
1
 10
115.864372
 20
180.339999
 30
0.0
 10
116.856696
 20
176.009095
 30
0.0
 10
118.709415
 20
166.019264
 30
0.0
 10
119.037193
 20
163.232190
 30
0.0
  0
LINE
  5
130
100
AcDbEntity
  8
0
 62
7
100
AcDbLine
 10
119.037193
 20
163.232190
 30
0.0
 11
119.207074
 21
161.787717
 31
0.0
  0
LINE
  5
131
100
AcDbEntity
  8
0
 62
7
100
AcDbLine
 10
119.207074
 20
161.787717
 30
0.0
 11
120.705781
 21
161.452321
 31
0.0
  0
SPLINE
  5
132
100
AcDbEntity
  8
0
 62
7
100
AcDbSpline
 70
8
 71
3
 72
8
 73
4
 74
0
 40
0
 40
0
 40
0
 40
0
 40
1
 40
1
 40
1
 40
1
 10
120.705781
 20
161.452321
 30
0.0
 10
123.656465
 20
160.791986
 30
0.0
 10
127.860975
 20
157.210521
 30
0.0
 10
128.909913
 20
154.463915
 30
0.0
  0
SPLINE
  5
133
100
AcDbEntity
  8
0
 62
7
100
AcDbSpline
 70
8
 71
3
 72
8
 73
4
 74
0
 40
0
 40
0
 40
0
 40
0
 40
1
 40
1
 40
1
 40
1
 10
128.909913
 20
154.463915
 30
0.0
 10
129.310017
 20
153.416258
 30
0.0
 10
129.488667
 20
153.246665
 30
0.0
 10
130.192176
 20
153.246665
 30
0.0
  0
SPLINE
  5
134
100
AcDbEntity
  8
0
 62
7
100
AcDbSpline
 70
8
 71
3
 72
8
 73
4
 74
0
 40
0
 40
0
 40
0
 40
0
 40
1
 40
1
 40
1
 40
1
 10
130.192176
 20
153.246665
 30
0.0
 10
131.100387
 20
153.246665
 30
0.0
 10
132.954149
 20
153.938347
 30
0.0
 10
132.989997
 20
154.290597
 30
0.0
  0
SPLINE
  5
135
100
AcDbEntity
  8
0
 62
7
100
AcDbSpline
 70
8
 71
3
 72
8
 73
4
 74
0
 40
0
 40
0
 40
0
 40
0
 40
1
 40
1
 40
1
 40
1
 10
132.989997
 20
154.290597
 30
0.0
 10
133.002641
 20
154.414935
 30
0.0
 10
133.034399
 20
155.500831
 30
0.0
 10
133.060553
 20
156.703701
 30
0.0
  0
SPLINE
  5
136
100
AcDbEntity
  8
0
 62
7
100
AcDbSpline
 70
8
 71
3
 72
8
 73
4
 74
0
 40
0
 40
0
 40
0
 40
0
 40
1
 40
1
 40
1
 40
1
 10
133.060553
 20
156.703701
 30
0.0
 10
133.110057
 20
158.980687
 30
0.0
 10
133.284578
 20
159.327405
 30
0.0
 10
133.841956
 20
158.256110
 30
0.0
  0
SPLINE
  5
137
100
AcDbEntity
  8
0
 62
7
100
AcDbSpline
 70
8
 71
3
 72
8
 73
4
 74
0
 40
0
 40
0
 40
0
 40
0
 40
1
 40
1
 40
1
 40
1
 10
133.841956
 20
158.256110
 30
0.0
 10
134.023664
 20
157.906860
 30
0.0
 10
134.203745
 20
157.583083
 30
0.0
 10
134.242130
 20
157.536604
 30
0.0
  0
SPLINE
  5
138
100
AcDbEntity
  8
0
 62
7
100
AcDbSpline
 70
8
 71
3
 72
8
 73
4
 74
0
 40
0
 40
0
 40
0
 40
0
 40
1
 40
1
 40
1
 40
1
 10
134.242130
 20
157.536604
 30
0.0
 10
134.280518
 20
157.490127
 30
0.0
 10
134.789037
 20
157.775877
 30
0.0
 10
135.372176
 20
158.171604
 30
0.0
  0
SPLINE
  5
139
100
AcDbEntity
  8
0
 62
7
100
AcDbSpline
 70
8
 71
3
 72
8
 73
4
 74
0
 40
0
 40
0
 40
0
 40
0
 40
1
 40
1
 40
1
 40
1
 10
135.372176
 20
158.171604
 30
0.0
 10
136.911049
 20
159.215914
 30
0.0
 10
137.388067
 20
159.060039
 30
0.0
 10
136.221953
 20
157.893925
 30
0.0
  0
SPLINE
  5
13a
100
AcDbEntity
  8
0
 62
7
100
AcDbSpline
 70
8
 71
3
 72
8
 73
4
 74
0
 40
0
 40
0
 40
0
 40
0
 40
1
 40
1
 40
1
 40
1
 10
136.221953
 20
157.893925
 30
0.0
 10
135.107226
 20
156.779196
 30
0.0
 10
134.940700
 20
156.232486
 30
0.0
 10
135.789213
 20
156.473202
 30
0.0
  0
SPLINE
  5
13b
100
AcDbEntity
  8
0
 62
7
100
AcDbSpline
 70
8
 71
3
 72
8
 73
4
 74
0
 40
0
 40
0
 40
0
 40
0
 40
1
 40
1
 40
1
 40
1
 10
135.789213
 20
156.473202
 30
0.0
 10
136.099657
 20
156.561275
 30
0.0
 10
136.607657
 20
156.705389
 30
0.0
 10
136.918102
 20
156.793462
 30
0.0
  0
SPLINE
  5
13c
100
AcDbEntity
  8
0
 62
7
100
AcDbSpline
 70
8
 71
3
 72
8
 73
4
 74
0
 40
0
 40
0
 40
0
 40
0
 40
1
 40
1
 40
1
 40
1
 10
136.918102
 20
156.793462
 30
0.0
 10
137.228546
 20
156.881532
 30
0.0
 10
137.478533
 20
156.849782
 30
0.0
 10
137.473625
 20
156.722906
 30
0.0
  0
SPLINE
  5
13d
100
AcDbEntity
  8
0
 62
7
100
AcDbSpline
 70
8
 71
3
 72
8
 73
4
 74
0
 40
0
 40
0
 40
0
 40
0
 40
1
 40
1
 40
1
 40
1
 10
137.473625
 20
156.722906
 30
0.0
 10
137.465808
 20
156.520745
 30
0.0
 10
136.924782
 20
156.131052
 30
0.0
 10
134.519213
 20
154.594889
 30
0.0
  0
SPLINE
  5
13e
100
AcDbEntity
  8
0
 62
7
100
AcDbSpline
 70
8
 71
3
 72
8
 73
4
 74
0
 40
0
 40
0
 40
0
 40
0
 40
1
 40
1
 40
1
 40
1
 10
134.519213
 20
154.594889
 30
0.0
 10
134.208768
 20
154.396645
 30
0.0
 10
133.852118
 20
154.073746
 30
0.0
 10
133.726657
 20
153.877339
 30
0.0
  0
SPLINE
  5
13f
100
AcDbEntity
  8
0
 62
7
100
AcDbSpline
 70
8
 71
3
 72
8
 73
4
 74
0
 40
0
 40
0
 40
0
 40
0
 40
1
 40
1
 40
1
 40
1
 10
133.726657
 20
153.877339
 30
0.0
 10
133.175558
 20
153.014605
 30
0.0
 10
132.204054
 20
152.382348
 30
0.0
 10
130.804214
 20
151.975404
 30
0.0
  0
LINE
  5
140
100
AcDbEntity
  8
0
 62
7
100
AcDbLine
 10
130.804214
 20
151.975404
 30
0.0
 11
129.298102
 21
151.537564
 31
0.0
  0
LINE
  5
141
100
AcDbEntity
  8
0
 62
7
100
AcDbLine
 10
129.298102
 20
151.537564
 30
0.0
 11
129.293191
 21
149.922672
 31
0.0
  0
SPLINE
  5
142
100
AcDbEntity
  8
0
 62
7
100
AcDbSpline
 70
8
 71
3
 72
8
 73
4
 74
0
 40
0
 40
0
 40
0
 40
0
 40
1
 40
1
 40
1
 40
1
 10
129.293191
 20
149.922672
 30
0.0
 10
129.287518
 20
148.051552
 30
0.0
 10
128.716193
 20
145.149619
 30
0.0
 10
127.836941
 20
142.525844
 30
0.0
  0
SPLINE
  5
143
100
AcDbEntity
  8
0
 62
7
100
AcDbSpline
 70
8
 71
3
 72
8
 73
4
 74
0
 40
0
 40
0
 40
0
 40
0
 40
1
 40
1
 40
1
 40
1
 10
127.836941
 20
142.525844
 30
0.0
 10
127.498165
 20
141.514908
 30
0.0
 10
127.246990
 20
140.323591
 30
0.0
 10
127.278773
 20
139.878476
 30
0.0
  0
SPLINE
  5
144
100
AcDbEntity
  8
0
 62
7
100
AcDbSpline
 70
8
 71
3
 72
8
 73
4
 74
0
 40
0
 40
0
 40
0
 40
0
 40
1
 40
1
 40
1
 40
1
 10
127.278773
 20
139.878476
 30
0.0
 10
127.310555
 20
139.433361
 30
0.0
 10
127.223740
 20
138.925361
 30
0.0
 10
127.085855
 20
138.749587
 30
0.0
  0
SPLINE
  5
145
100
AcDbEntity
  8
0
 62
7
100
AcDbSpline
 70
8
 71
3
 72
8
 73
4
 74
0
 40
0
 40
0
 40
0
 40
0
 40
1
 40
1
 40
1
 40
1
 10
127.085855
 20
138.749587
 30
0.0
 10
126.947967
 20
138.573813
 30
0.0
 10
126.749155
 20
137.858499
 30
0.0
 10
126.644050
 20
137.159999
 30
0.0
  0
SPLINE
  5
146
100
AcDbEntity
  8
0
 62
7
100
AcDbSpline
 70
8
 71
3
 72
8
 73
4
 74
0
 40
0
 40
0
 40
0
 40
0
 40
1
 40
1
 40
1
 40
1
 10
126.644050
 20
137.159999
 30
0.0
 10
126.538945
 20
136.461499
 30
0.0
 10
126.145987
 20
134.810499
 30
0.0
 10
125.770807
 20
133.491110
 30
0.0
  0
SPLINE
  5
147
100
AcDbEntity
  8
0
 62
7
100
AcDbSpline
 70
8
 71
3
 72
8
 73
4
 74
0
 40
0
 40
0
 40
0
 40
0
 40
1
 40
1
 40
1
 40
1
 10
125.770807
 20
133.491110
 30
0.0
 10
125.395626
 20
132.171721
 30
0.0
 10
125.017671
 20
130.635393
 30
0.0
 10
124.930905
 20
130.077050
 30
0.0
  0
SPLINE
  5
148
100
AcDbEntity
  8
0
 62
7
100
AcDbSpline
 70
8
 71
3
 72
8
 73
4
 74
0
 40
0
 40
0
 40
0
 40
0
 40
1
 40
1
 40
1
 40
1
 10
124.930905
 20
130.077050
 30
0.0
 10
124.818050
 20
129.350800
 30
0.0
 10
124.569909
 20
128.969277
 30
0.0
 10
124.059010
 20
128.736495
 30
0.0
  0
SPLINE
  5
149
100
AcDbEntity
  8
0
 62
7
100
AcDbSpline
 70
8
 71
3
 72
8
 73
4
 74
0
 40
0
 40
0
 40
0
 40
0
 40
1
 40
1
 40
1
 40
1
 10
124.059010
 20
128.736495
 30
0.0
 10
123.145846
 20
128.320432
 30
0.0
 10
121.901768
 20
128.321295
 30
0.0
 10
120.985813
 20
128.738753
 30
0.0
  0
SPLINE
  5
14a
100
AcDbEntity
  8
0
 62
7
100
AcDbSpline
 70
8
 71
3
 72
8
 73
4
 74
0
 40
0
 40
0
 40
0
 40
0
 40
1
 40
1
 40
1
 40
1
 10
120.985813
 20
128.738753
 30
0.0
 10
120.226108
 20
129.084898
 30
0.0
 10
120.083255
 20
129.393257
 30
0.0
 10
120.549202
 20
129.681228
 30
0.0
  0
SPLINE
  5
14b
100
AcDbEntity
  8
0
 62
7
100
AcDbSpline
 70
8
 71
3
 72
8
 73
4
 74
0
 40
0
 40
0
 40
0
 40
0
 40
1
 40
1
 40
1
 40
1
 10
120.549202
 20
129.681228
 30
0.0
 10
120.978301
 20
129.946427
 30
0.0
 10
120.886118
 20
130.390057
 30
0.0
 10
120.437670
 20
130.217972
 30
0.0
  0
SPLINE
  5
14c
100
AcDbEntity
  8
0
 62
7
100
AcDbSpline
 70
8
 71
3
 72
8
 73
4
 74
0
 40
0
 40
0
 40
0
 40
0
 40
1
 40
1
 40
1
 40
1
 10
120.437670
 20
130.217972
 30
0.0
 10
119.886524
 20
130.006354
 30
0.0
 10
117.726991
 20
130.625637
 30
0.0
 10
117.726991
 20
130.995190
 30
0.0
  0
SPLINE
  5
14d
100
AcDbEntity
  8
0
 62
7
100
AcDbSpline
 70
8
 71
3
 72
8
 73
4
 74
0
 40
0
 40
0
 40
0
 40
0
 40
1
 40
1
 40
1
 40
1
 10
117.726991
 20
130.995190
 30
0.0
 10
117.726991
 20
131.270884
 30
0.0
 10
119.219650
 20
132.806252
 30
0.0
 10
120.364064
 20
133.707718
 30
0.0
  0
SPLINE
  5
14e
100
AcDbEntity
  8
0
 62
7
100
AcDbSpline
 70
8
 71
3
 72
8
 73
4
 74
0
 40
0
 40
0
 40
0
 40
0
 40
1
 40
1
 40
1
 40
1
 10
120.364064
 20
133.707718
 30
0.0
 10
121.188954
 20
134.357490
 30
0.0
 10
122.089985
 20
137.927098
 30
0.0
 10
122.054716
 20
140.405554
 30
0.0
  0
SPLINE
  5
14f
100
AcDbEntity
  8
0
 62
7
100
AcDbSpline
 70
8
 71
3
 72
8
 73
4
 74
0
 40
0
 40
0
 40
0
 40
0
 40
1
 40
1
 40
1
 40
1
 10
122.054716
 20
140.405554
 30
0.0
 10
122.006541
 20
143.790793
 30
0.0
 10
121.618259
 20
148.223194
 30
0.0
 10
121.392239
 20
147.968023
 30
0.0
  0
SPLINE
  5
150
100
AcDbEntity
  8
0
 62
7
100
AcDbSpline
 70
8
 71
3
 72
8
 73
4
 74
0
 40
0
 40
0
 40
0
 40
0
 40
1
 40
1
 40
1
 40
1
 10
121.392239
 20
147.968023
 30
0.0
 10
121.282776
 20
147.844444
 30
0.0
 10
121.052788
 20
147.014174
 30
0.0
 10
120.881154
 20
146.122978
 30
0.0
  0
SPLINE
  5
151
100
AcDbEntity
  8
0
 62
7
100
AcDbSpline
 70
8
 71
3
 72
8
 73
4
 74
0
 40
0
 40
0
 40
0
 40
0
 40
1
 40
1
 40
1
 40
1
 10
120.881154
 20
146.122978
 30
0.0
 10
120.709521
 20
145.231785
 30
0.0
 10
120.247119
 20
143.697820
 30
0.0
 10
119.853597
 20
142.714169
 30
0.0
  0
SPLINE
  5
152
100
AcDbEntity
  8
0
 62
7
100
AcDbSpline
 70
8
 71
3
 72
8
 73
4
 74
0
 40
0
 40
0
 40
0
 40
0
 40
1
 40
1
 40
1
 40
1
 10
119.853597
 20
142.714169
 30
0.0
 10
119.460075
 20
141.730517
 30
0.0
 10
119.138102
 20
140.627194
 30
0.0
 10
119.138102
 20
140.262338
 30
0.0
  0
SPLINE
  5
153
100
AcDbEntity
  8
0
 62
7
100
AcDbSpline
 70
8
 71
3
 72
8
 73
4
 74
0
 40
0
 40
0
 40
0
 40
0
 40
1
 40
1
 40
1
 40
1
 10
119.138102
 20
140.262338
 30
0.0
 10
119.138102
 20
139.897481
 30
0.0
 10
119.020644
 20
139.208946
 30
0.0
 10
118.877083
 20
138.732259
 30
0.0
  0
SPLINE
  5
154
100
AcDbEntity
  8
0
 62
7
100
AcDbSpline
 70
8
 71
3
 72
8
 73
4
 74
0
 40
0
 40
0
 40
0
 40
0
 40
1
 40
1
 40
1
 40
1
 10
118.877083
 20
138.732259
 30
0.0
 10
117.998048
 20
135.813465
 30
0.0
 10
116.872128
 20
130.938977
 30
0.0
 10
116.875896
 20
130.068443
 30
0.0
  0
SPLINE
  5
155
100
AcDbEntity
  8
0
 62
7
100
AcDbSpline
 70
8
 71
3
 72
8
 73
4
 74
0
 40
0
 40
0
 40
0
 40
0
 40
1
 40
1
 40
1
 40
1
 10
116.875896
 20
130.068443
 30
0.0
 10
116.878436
 20
129.505367
 30
0.0
 10
116.701155
 20
128.895970
 30
0.0
 10
116.482173
 20
128.714230
 30
0.0
  0
SPLINE
  5
156
100
AcDbEntity
  8
0
 62
7
100
AcDbSpline
 70
8
 71
3
 72
8
 73
4
 74
0
 40
0
 40
0
 40
0
 40
0
 40
1
 40
1
 40
1
 40
1
 10
116.482173
 20
128.714230
 30
0.0
 10
115.915988
 20
128.244339
 30
0.0
 10
114.356814
 20
128.106826
 30
0.0
 10
113.281991
 20
128.431986
 30
0.0
  0
LINE
  5
157
100
AcDbEntity
  8
0
 62
7
100
AcDbLine
 10
113.281991
 20
128.431986
 30
0.0
 11
113.281991
 21
128.431986
 31
0.0
  0
SPLINE
  5
158
100
AcDbEntity
  8
0
 62
7
100
AcDbSpline
 70
8
 71
3
 72
8
 73
4
 74
0
 40
0
 40
0
 40
0
 40
0
 40
1
 40
1
 40
1
 40
1
 10
123.201100
 20
132.150554
 30
0.0
 10
123.794526
 20
133.076139
 30
0.0
 10
124.820031
 20
136.659630
 30
0.0
 10
124.807320
 20
137.763271
 30
0.0
  0
SPLINE
  5
159
100
AcDbEntity
  8
0
 62
7
100
AcDbSpline
 70
8
 71
3
 72
8
 73
4
 74
0
 40
0
 40
0
 40
0
 40
0
 40
1
 40
1
 40
1
 40
1
 10
124.807320
 20
137.763271
 30
0.0
 10
124.754589
 20
142.341136
 30
0.0
 10
124.745646
 20
142.442902
 30
0.0
 10
124.500665
 20
141.252221
 30
0.0
  0
SPLINE
  5
15a
100
AcDbEntity
  8
0
 62
7
100
AcDbSpline
 70
8
 71
3
 72
8
 73
4
 74
0
 40
0
 40
0
 40
0
 40
0
 40
1
 40
1
 40
1
 40
1
 10
124.500665
 20
141.252221
 30
0.0
 10
123.816488
 20
137.926895
 30
0.0
 10
123.266217
 20
135.760300
 30
0.0
 10
122.782810
 20
134.488460
 30
0.0
  0
SPLINE
  5
15b
100
AcDbEntity
  8
0
 62
7
100
AcDbSpline
 70
8
 71
3
 72
8
 73
4
 74
0
 40
0
 40
0
 40
0
 40
0
 40
1
 40
1
 40
1
 40
1
 10
122.782810
 20
134.488460
 30
0.0
 10
121.902316
 20
132.171884
 30
0.0
 10
122.188664
 20
130.571428
 30
0.0
 10
123.201100
 20
132.150554
 30
0.0
  0
LINE
  5
15c
100
AcDbEntity
  8
0
 62
7
100
AcDbLine
 10
123.201100
 20
132.150554
 30
0.0
 11
123.201100
 21
132.150554
 31
0.0
  0
ENDSEC
  0
SECTION
  2
OBJECTS
  0
DICTIONARY
  5
C
330
0
100
AcDbDictionary
  3
ACAD_GROUP
350
D
  3
ACAD_MLINESTYLE
350
17
  0
DICTIONARY
  5
D
330
C
100
AcDbDictionary
  0
DICTIONARY
  5
1A
330
C
100
AcDbDictionary
  0
DICTIONARY
  5
17
330
C
100
AcDbDictionary
  3
STANDARD
350
18
  0
DICTIONARY
  5
19
330
C
100
AcDbDictionary
  0
ENDSEC
  0
EOF
