  0
SECTION
  2
HEADER
  9
$ACADVER
  1
AC1009
  9
$DWGCODEPAGE
  3
ansi_1252
  9
$INSBASE
 10
0.0
 20
0.0
 30
0.0
  9
$EXTMIN
 10
4.022721
 20
0.754712
 30
0.0
  9
$EXTMAX
 10
166.920179
 20
168.074748
 30
0.0
  9
$LIMMIN
 10
0.0
 20
0.0
  9
$LIMMAX
 10
12.0
 20
9.0
  9
$ORTHOMODE
 70
     0
  9
$REGENMODE
 70
     1
  9
$FILLMODE
 70
     1
  9
$QTEXTMODE
 70
     0
  9
$MIRRTEXT
 70
     1
  9
$DRAGMODE
 70
     2
  9
$LTSCALE
 40
1.0
  9
$OSMODE
 70
   511
  9
$ATTMODE
 70
     1
  9
$TEXTSIZE
 40
2.5
  9
$TRACEWID
 40
0.05
  9
$TEXTSTYLE
  7
STANDARD
  9
$CLAYER
  8
0
  9
$CELTYPE
  6
BYBLOCK
  9
$CECOLOR
 62
   256
  9
$DIMSCALE
 40
1.0
  9
$DIMASZ
 40
0.18
  9
$DIMEXO
 40
0.0625
  9
$DIMDLI
 40
0.38
  9
$DIMRND
 40
0.0
  9
$DIMDLE
 40
0.0
  9
$DIMEXE
 40
0.18
  9
$DIMTP
 40
0.0
  9
$DIMTM
 40
0.0
  9
$DIMTXT
 40
0.18
  9
$DIMCEN
 40
0.09
  9
$DIMTSZ
 40
0.0
  9
$DIMTOL
 70
     0
  9
$DIMLIM
 70
     0
  9
$DIMTIH
 70
     1
  9
$DIMTOH
 70
     1
  9
$DIMSE1
 70
     0
  9
$DIMSE2
 70
     0
  9
$DIMTAD
 70
     0
  9
$DIMZIN
 70
     0
  9
$DIMBLK
  1

  9
$DIMASO
 70
     1
  9
$DIMSHO
 70
     1
  9
$DIMPOST
  1

  9
$DIMAPOST
  1

  9
$DIMALT
 70
     0
  9
$DIMALTD
 70
     2
  9
$DIMALTF
 40
25.4
  9
$DIMLFAC
 40
1.0
  9
$DIMTOFL
 70
     0
  9
$DIMTVP
 40
0.0
  9
$DIMTIX
 70
     0
  9
$DIMSOXD
 70
     0
  9
$DIMSAH
 70
     0
  9
$DIMBLK1
  1

  9
$DIMBLK2
  1

  9
$DIMSTYLE
  2
ISO-25
  9
$DIMCLRD
 70
     0
  9
$DIMCLRE
 70
     0
  9
$DIMCLRT
 70
     0
  9
$DIMTFAC
 40
1.0
  9
$DIMGAP
 40
0.09
  9
$LUNITS
 70
     2
  9
$LUPREC
 70
     4
  9
$SKETCHINC
 40
0.1
  9
$FILLETRAD
 40
0.5
  9
$AUNITS
 70
     0
  9
$AUPREC
 70
     0
  9
$MENU
  1
.
  9
$ELEVATION
 40
0.0
  9
$PELEVATION
 40
0.0
  9
$THICKNESS
 40
0.0
  9
$LIMCHECK
 70
     0
  9
$CHAMFERA
 40
0.0
  9
$CHAMFERB
 40
0.0
  9
$SKPOLY
 70
     0
  9
$TDCREATE
 40
0.0
  9
$TDUPDATE
 40
2456686.436932859
  9
$TDINDWG
 40
0.0
  9
$TDUSRTIMER
 40
2456686.644953704
  9
$USRTIMER
 70
     1
  9
$ANGBASE
 50
0.0
  9
$ANGDIR
 70
     0
  9
$PDMODE
 70
     0
  9
$PDSIZE
 40
0.0
  9
$PLINEWID
 40
0.0
  9
$COORDS
 70
     1
  9
$SPLFRAME
 70
     0
  9
$SPLINETYPE
 70
     6
  9
$SPLINESEGS
 70
     8
  9
$ATTDIA
 70
     0
  9
$ATTREQ
 70
     1
  9
$HANDLING
 70
     1
  9
$HANDSEED
  5
10422
  9
$SURFTAB1
 70
     6
  9
$SURFTAB2
 70
     6
  9
$SURFTYPE
 70
     6
  9
$SURFU
 70
     6
  9
$SURFV
 70
     6
  9
$UCSNAME
  2

  9
$UCSORG
 10
0.0
 20
0.0
 30
0.0
  9
$UCSXDIR
 10
1.0
 20
0.0
 30
0.0
  9
$UCSYDIR
 10
0.0
 20
1.0
 30
0.0
  9
$PUCSNAME
  2

  9
$PUCSORG
 10
0.0
 20
0.0
 30
0.0
  9
$PUCSXDIR
 10
1.0
 20
0.0
 30
0.0
  9
$PUCSYDIR
 10
0.0
 20
1.0
 30
0.0
  9
$USERI1
 70
     0
  9
$USERI2
 70
     0
  9
$USERI3
 70
     0
  9
$USERI4
 70
     0
  9
$USERI5
 70
     0
  9
$USERR1
 40
0.0
  9
$USERR2
 40
0.0
  9
$USERR3
 40
0.0
  9
$USERR4
 40
0.0
  9
$USERR5
 40
0.0
  9
$WORLDVIEW
 70
     1
  9
$SHADEDGE
 70
     3
  9
$SHADEDIF
 70
    70
  9
$TILEMODE
 70
     1
  9
$MAXACTVP
 70
    64
  9
$PLIMCHECK
 70
     0
  9
$PEXTMIN
 10
1.000000000000000E+20
 20
1.000000000000000E+20
 30
1.000000000000000E+20
  9
$PEXTMAX
 10
-1.000000000000000E+20
 20
-1.000000000000000E+20
 30
-1.000000000000000E+20
  9
$PLIMMIN
 10
0.0
 20
0.0
  9
$PLIMMAX
 10
0.0
 20
0.0
  9
$UNITMODE
 70
     0
  9
$VISRETAIN
 70
     1
  9
$PLINEGEN
 70
     0
  9
$PSLTSCALE
 70
     1
  0
ENDSEC
  0
SECTION
  2
TABLES
  0
TABLE
  2
VPORT
 70
     1
  0
VPORT
  2
*ACTIVE
 70
     0
 10
0.0
 20
0.0
 11
1.0
 21
1.0
 12
210.0
 22
148.5
 13
0.0
 23
0.0
 14
10.0
 24
10.0
 15
10.0
 25
10.0
 16
0.0
 26
0.0
 36
1.0
 17
0.0
 27
0.0
 37
0.0
 40
341.0
 41
1.24
 42
50.0
 43
0.0
 44
0.0
 50
0.0
 51
0.0
 71
     0
 72
   100
 73
     1
 74
     3
 75
     0
 76
     0
 77
     0
 78
     0
  0
ENDTAB
  0
TABLE
  2
LTYPE
 70
     1
  0
LTYPE
  2
CONTINUOUS
 70
     0
  3
Solid line
 72
    65
 73
     0
 40
0.0
  0
ENDTAB
  0
TABLE
  2
LAYER
 70
     2
  0
LAYER
  2
0
 70
     0
 62
     7
  6
CONTINUOUS
  0
LAYER
  2
LAYER_1
 70
     0
 62
     7
  6
CONTINUOUS
  0
ENDTAB
  0
TABLE
  2
STYLE
 70
     1
  0
STYLE
  2
STANDARD
 70
     0
 40
0.0
 41
1.0
 50
0.0
 71
     0
 42
2.5
  3
txt
  4

  0
ENDTAB
  0
TABLE
  2
VIEW
 70
     0
  0
ENDTAB
  0
TABLE
  2
UCS
 70
     0
  0
ENDTAB
  0
TABLE
  2
APPID
 70
     1
  0
APPID
  2
ACAD
 70
     0
  0
ENDTAB
  0
TABLE
  2
DIMSTYLE
 70
     1
  0
DIMSTYLE
  2
ISO-25
 70
     0
  3

  4

  5

  6

  7

 40
1.0
 41
2.5
 42
0.625
 43
3.75
 44
1.25
 45
0.0
 46
0.0
 47
0.0
 48
0.0
140
2.5
141
2.5
142
0.0
143
0.03937007874016
144
1.0
145
0.0
146
1.0
147
0.625
 71
     0
 72
     0
 73
     0
 74
     0
 75
     0
 76
     0
 77
     1
 78
     8
170
     0
171
     3
172
     1
173
     0
174
     0
175
     0
176
     0
177
     0
178
     0
  0
ENDTAB
  0
ENDSEC
  0
SECTION
  2
BLOCKS
  0
BLOCK
  8
0
  2
$MODEL_SPACE
 70
     0
 10
0.0
 20
0.0
 30
0.0
  3
$MODEL_SPACE
  1

  0
ENDBLK
  5
21
  8
0
  0
BLOCK
 67
     1
  8
0
  2
$PAPER_SPACE
 70
     0
 10
0.0
 20
0.0
 30
0.0
  3
$PAPER_SPACE
  1

  0
ENDBLK
  5
1D
 67
     1
  8
0
  0
ENDSEC
  0
SECTION
  2
ENTITIES
  0
POLYLINE
  5
100
  8
LAYER_1
 62
     7
 66
     1
 10
0.0
 20
0.0
 30
0.0
  0
VERTEX
  5
10046
  8
LAYER_1
 62
     7
 10
83.208984
 20
86.62602
 30
0.0
  0
VERTEX
  5
10047
  8
LAYER_1
 62
     7
 10
83.2261090041956
 20
86.78518665936053
 30
0.0
  0
VERTEX
  5
10048
  8
LAYER_1
 62
     7
 10
83.25994011689815
 20
86.92302239988426
 30
0.0
  0
VERTEX
  5
10049
  8
LAYER_1
 62
     7
 10
83.30911398828124
 20
87.04049399023438
 30
0.0
  0
VERTEX
  5
1004A
  8
LAYER_1
 62
     7
 10
83.37226726851853
 20
87.13856819907409
 30
0.0
  0
VERTEX
  5
1004B
  8
LAYER_1
 62
     7
 10
83.44803660778358
 20
87.21821179506655
 30
0.0
  0
VERTEX
  5
1004C
  8
LAYER_1
 62
     7
 10
83.53505865624999
 20
87.280391546875
 30
0.0
  0
VERTEX
  5
1004D
  8
LAYER_1
 62
     7
 10
83.63197006409145
 20
87.32607422316262
 30
0.0
  0
VERTEX
  5
1004E
  8
LAYER_1
 62
     7
 10
83.73740748148148
 20
87.3562265925926
 30
0.0
  0
VERTEX
  5
1004F
  8
LAYER_1
 62
     7
 10
83.85000755859375
 20
87.37181542382812
 30
0.0
  0
VERTEX
  5
10050
  8
LAYER_1
 62
     7
 10
83.96840694560186
 20
87.37380748553241
 30
0.0
  0
VERTEX
  5
10051
  8
LAYER_1
 62
     7
 10
84.0912422926794
 20
87.36316954636862
 30
0.0
  0
VERTEX
  5
10052
  8
LAYER_1
 62
     7
 10
84.21715025
 20
87.340868375
 30
0.0
  0
VERTEX
  5
10053
  8
LAYER_1
 62
     7
 10
84.34476746773728
 20
87.3078707400897
 30
0.0
  0
VERTEX
  5
10054
  8
LAYER_1
 62
     7
 10
84.47273059606482
 20
87.26514341030094
 30
0.0
  0
VERTEX
  5
10055
  8
LAYER_1
 62
     7
 10
84.59967628515626
 20
87.21365315429688
 30
0.0
  0
VERTEX
  5
10056
  8
LAYER_1
 62
     7
 10
84.72424118518518
 20
87.15436674074074
 30
0.0
  0
VERTEX
  5
10057
  8
LAYER_1
 62
     7
 10
84.84506194632523
 20
87.08825093829572
 30
0.0
  0
VERTEX
  5
10058
  8
LAYER_1
 62
     7
 10
84.96077521875
 20
87.016272515625
 30
0.0
  0
VERTEX
  5
10059
  8
LAYER_1
 62
     7
 10
85.07001765263311
 20
86.93939824139179
 30
0.0
  0
VERTEX
  5
1005A
  8
LAYER_1
 62
     7
 10
85.17142589814816
 20
86.85859488425926
 30
0.0
  0
VERTEX
  5
1005B
  8
LAYER_1
 62
     7
 10
85.26363660546875
 20
86.77482921289062
 30
0.0
  0
VERTEX
  5
1005C
  8
LAYER_1
 62
     7
 10
85.34528642476853
 20
86.68906799594909
 30
0.0
  0
VERTEX
  5
1005D
  8
LAYER_1
 62
     7
 10
85.41501200622106
 20
86.6022780020978
 30
0.0
  0
VERTEX
  5
1005E
  8
LAYER_1
 62
     7
 10
85.47145
 20
86.515426
 30
0.0
  0
SEQEND
  5
103FC
  8
LAYER_1
 62
     7
  0
POLYLINE
  5
101
  8
LAYER_1
 62
     7
 66
     1
 10
0.0
 20
0.0
 30
0.0
  0
VERTEX
  5
1005F
  8
LAYER_1
 62
     7
 10
85.47145
 20
86.515426
 30
0.0
  0
VERTEX
  5
10060
  8
LAYER_1
 62
     7
 10
85.59055619408275
 20
86.27999744654225
 30
0.0
  0
VERTEX
  5
10061
  8
LAYER_1
 62
     7
 10
85.68128080266203
 20
86.04337492650463
 30
0.0
  0
VERTEX
  5
10062
  8
LAYER_1
 62
     7
 10
85.74485461523437
 20
85.80633190039062
 30
0.0
  0
VERTEX
  5
10063
  8
LAYER_1
 62
     7
 10
85.7825084212963
 20
85.56964182870372
 30
0.0
  0
VERTEX
  5
10064
  8
LAYER_1
 62
     7
 10
85.79547301034434
 20
85.33407817194734
 30
0.0
  0
VERTEX
  5
10065
  8
LAYER_1
 62
     7
 10
85.78497917187498
 20
85.10041439062499
 30
0.0
  0
VERTEX
  5
10066
  8
LAYER_1
 62
     7
 10
85.75225769538484
 20
84.86942394524016
 30
0.0
  0
VERTEX
  5
10067
  8
LAYER_1
 62
     7
 10
85.69853937037037
 20
84.6418802962963
 30
0.0
  0
VERTEX
  5
10068
  8
LAYER_1
 62
     7
 10
85.62505498632814
 20
84.41855690429688
 30
0.0
  0
VERTEX
  5
10069
  8
LAYER_1
 62
     7
 10
85.53303533275464
 20
84.20022722974538
 30
0.0
  0
VERTEX
  5
1006A
  8
LAYER_1
 62
     7
 10
85.42371119914641
 20
83.98766473314525
 30
0.0
  0
VERTEX
  5
1006B
  8
LAYER_1
 62
     7
 10
85.29831337499999
 20
83.781642875
 30
0.0
  0
VERTEX
  5
1006C
  8
LAYER_1
 62
     7
 10
85.15807264981191
 20
83.58293511581307
 30
0.0
  0
VERTEX
  5
1006D
  8
LAYER_1
 62
     7
 10
85.0042198130787
 20
83.39231491608797
 30
0.0
  0
VERTEX
  5
1006E
  8
LAYER_1
 62
     7
 10
84.83798565429687
 20
83.21055573632813
 30
0.0
  0
VERTEX
  5
1006F
  8
LAYER_1
 62
     7
 10
84.66060096296296
 20
83.03843103703704
 30
0.0
  0
VERTEX
  5
10070
  8
LAYER_1
 62
     7
 10
84.47329652857348
 20
82.87671427871818
 30
0.0
  0
VERTEX
  5
10071
  8
LAYER_1
 62
     7
 10
84.277303140625
 20
82.726178921875
 30
0.0
  0
VERTEX
  5
10072
  8
LAYER_1
 62
     7
 10
84.073851588614
 20
82.587598427011
 30
0.0
  0
VERTEX
  5
10073
  8
LAYER_1
 62
     7
 10
83.86417266203703
 20
82.46174625462963
 30
0.0
  0
VERTEX
  5
10074
  8
LAYER_1
 62
     7
 10
83.64949715039063
 20
82.34939586523437
 30
0.0
  0
VERTEX
  5
10075
  8
LAYER_1
 62
     7
 10
83.43105584317131
 20
82.25132071932872
 30
0.0
  0
VERTEX
  5
10076
  8
LAYER_1
 62
     7
 10
83.21007952987557
 20
82.1682942774161
 30
0.0
  0
VERTEX
  5
10077
  8
LAYER_1
 62
     7
 10
82.987799
 20
82.10109
 30
0.0
  0
SEQEND
  5
103FD
  8
LAYER_1
 62
     7
  0
POLYLINE
  5
102
  8
LAYER_1
 62
     7
 66
     1
 10
0.0
 20
0.0
 30
0.0
  0
VERTEX
  5
10078
  8
LAYER_1
 62
     7
 10
82.987799
 20
82.10109
 30
0.0
  0
VERTEX
  5
10079
  8
LAYER_1
 62
     7
 10
82.59142617180265
 20
82.01362098538773
 30
0.0
  0
VERTEX
  5
1007A
  8
LAYER_1
 62
     7
 10
82.19899977025462
 20
81.96149279976852
 30
0.0
  0
VERTEX
  5
1007B
  8
LAYER_1
 62
     7
 10
81.81143754492187
 20
81.94332298046875
 30
0.0
  0
VERTEX
  5
1007C
  8
LAYER_1
 62
     7
 10
81.42965724537038
 20
81.95772906481483
 30
0.0
  0
VERTEX
  5
1007D
  8
LAYER_1
 62
     7
 10
81.05457662116609
 20
82.0033285901331
 30
0.0
  0
VERTEX
  5
1007E
  8
LAYER_1
 62
     7
 10
80.687113421875
 20
82.07873909374999
 30
0.0
  0
VERTEX
  5
1007F
  8
LAYER_1
 62
     7
 10
80.32818539706307
 20
82.1825781129919
 30
0.0
  0
VERTEX
  5
10080
  8
LAYER_1
 62
     7
 10
79.9787102962963
 20
82.31346318518519
 30
0.0
  0
VERTEX
  5
10081
  8
LAYER_1
 62
     7
 10
79.63960586914062
 20
82.47001184765625
 30
0.0
  0
VERTEX
  5
10082
  8
LAYER_1
 62
     7
 10
79.31178986516204
 20
82.65084163773147
 30
0.0
  0
VERTEX
  5
10083
  8
LAYER_1
 62
     7
 10
78.9961800339265
 20
82.85457009273726
 30
0.0
  0
VERTEX
  5
10084
  8
LAYER_1
 62
     7
 10
78.69369412500001
 20
83.07981475
 30
0.0
  0
VERTEX
  5
10085
  8
LAYER_1
 62
     7
 10
78.40524988794849
 20
83.32519314684608
 30
0.0
  0
VERTEX
  5
10086
  8
LAYER_1
 62
     7
 10
78.13176507233796
 20
83.58932282060185
 30
0.0
  0
VERTEX
  5
10087
  8
LAYER_1
 62
     7
 10
77.87415742773437
 20
83.87082130859375
 30
0.0
  0
VERTEX
  5
10088
  8
LAYER_1
 62
     7
 10
77.6333447037037
 20
84.16830614814815
 30
0.0
  0
VERTEX
  5
10089
  8
LAYER_1
 62
     7
 10
77.41024464981191
 20
84.48039487659143
 30
0.0
  0
VERTEX
  5
1008A
  8
LAYER_1
 62
     7
 10
77.205775015625
 20
84.80570503125
 30
0.0
  0
VERTEX
  5
1008B
  8
LAYER_1
 62
     7
 10
77.0208535507089
 20
85.14285414945023
 30
0.0
  0
VERTEX
  5
1008C
  8
LAYER_1
 62
     7
 10
76.85639800462963
 20
85.4904597685185
 30
0.0
  0
VERTEX
  5
1008D
  8
LAYER_1
 62
     7
 10
76.71332612695312
 20
85.84713942578124
 30
0.0
  0
VERTEX
  5
1008E
  8
LAYER_1
 62
     7
 10
76.59255566724538
 20
86.21151065856482
 30
0.0
  0
VERTEX
  5
1008F
  8
LAYER_1
 62
     7
 10
76.49500437507233
 20
86.5821910041956
 30
0.0
  0
VERTEX
  5
10090
  8
LAYER_1
 62
     7
 10
76.42159
 20
86.957798
 30
0.0
  0
SEQEND
  5
103FE
  8
LAYER_1
 62
     7
  0
POLYLINE
  5
103
  8
LAYER_1
 62
     7
 66
     1
 10
0.0
 20
0.0
 30
0.0
  0
VERTEX
  5
10091
  8
LAYER_1
 62
     7
 10
76.42159
 20
86.957798
 30
0.0
  0
VERTEX
  5
10092
  8
LAYER_1
 62
     7
 10
76.35469144639757
 20
87.50855885496236
 30
0.0
  0
VERTEX
  5
10093
  8
LAYER_1
 62
     7
 10
76.33204046701388
 20
88.05173446469908
 30
0.0
  0
VERTEX
  5
10094
  8
LAYER_1
 62
     7
 10
76.35196858398437
 20
88.58613577148438
 30
0.0
  0
VERTEX
  5
10095
  8
LAYER_1
 62
     7
 10
76.41280731944445
 20
89.1105737175926
 30
0.0
  0
VERTEX
  5
10096
  8
LAYER_1
 62
     7
 10
76.51288819552951
 20
89.62385924529804
 30
0.0
  0
VERTEX
  5
10097
  8
LAYER_1
 62
     7
 10
76.650542734375
 20
90.12480329687499
 30
0.0
  0
VERTEX
  5
10098
  8
LAYER_1
 62
     7
 10
76.82410245811631
 20
90.6122168145978
 30
0.0
  0
VERTEX
  5
10099
  8
LAYER_1
 62
     7
 10
77.03189888888889
 20
91.08491074074074
 30
0.0
  0
VERTEX
  5
1009A
  8
LAYER_1
 62
     7
 10
77.27226354882812
 20
91.54169601757812
 30
0.0
  0
VERTEX
  5
1009B
  8
LAYER_1
 62
     7
 10
77.54352796006944
 20
91.98138358738426
 30
0.0
  0
VERTEX
  5
1009C
  8
LAYER_1
 62
     7
 10
77.84402364474826
 20
92.40278439243345
 30
0.0
  0
VERTEX
  5
1009D
  8
LAYER_1
 62
     7
 10
78.17208212499999
 20
92.804709375
 30
0.0
  0
VERTEX
  5
1009E
  8
LAYER_1
 62
     7
 10
78.52603492296008
 20
93.18596947735821
 30
0.0
  0
VERTEX
  5
1009F
  8
LAYER_1
 62
     7
 10
78.90421356076389
 20
93.54537564178241
 30
0.0
  0
VERTEX
  5
100A0
  8
LAYER_1
 62
     7
 10
79.30494956054687
 20
93.88173881054688
 30
0.0
  0
VERTEX
  5
100A1
  8
LAYER_1
 62
     7
 10
79.72657444444444
 20
94.19386992592594
 30
0.0
  0
VERTEX
  5
100A2
  8
LAYER_1
 62
     7
 10
80.16741973459202
 20
94.48057993019385
 30
0.0
  0
VERTEX
  5
100A3
  8
LAYER_1
 62
     7
 10
80.625816953125
 20
94.74067976562499
 30
0.0
  0
VERTEX
  5
100A4
  8
LAYER_1
 62
     7
 10
81.10009762217882
 20
94.97298037449363
 30
0.0
  0
VERTEX
  5
100A5
  8
LAYER_1
 62
     7
 10
81.58859326388888
 20
95.17629269907407
 30
0.0
  0
VERTEX
  5
100A6
  8
LAYER_1
 62
     7
 10
82.08963540039062
 20
95.34942768164062
 30
0.0
  0
VERTEX
  5
100A7
  8
LAYER_1
 62
     7
 10
82.60155555381945
 20
95.4911962644676
 30
0.0
  0
VERTEX
  5
100A8
  8
LAYER_1
 62
     7
 10
83.12268524631077
 20
95.60040938982928
 30
0.0
  0
VERTEX
  5
100A9
  8
LAYER_1
 62
     7
 10
83.651356
 20
95.675878
 30
0.0
  0
SEQEND
  5
103FF
  8
LAYER_1
 62
     7
  0
POLYLINE
  5
104
  8
LAYER_1
 62
     7
 66
     1
 10
0.0
 20
0.0
 30
0.0
  0
VERTEX
  5
100AA
  8
LAYER_1
 62
     7
 10
83.651356
 20
95.675878
 30
0.0
  0
VERTEX
  5
100AB
  8
LAYER_1
 62
     7
 10
84.35533551548033
 20
95.72588757024015
 30
0.0
  0
VERTEX
  5
100AC
  8
LAYER_1
 62
     7
 10
85.04843976967594
 20
95.72210514525462
 30
0.0
  0
VERTEX
  5
100AD
  8
LAYER_1
 62
     7
 10
85.72917469921876
 20
95.66652852148438
 30
0.0
  0
VERTEX
  5
100AE
  8
LAYER_1
 62
     7
 10
86.39604624074076
 20
95.56115549537037
 30
0.0
  0
VERTEX
  5
100AF
  8
LAYER_1
 62
     7
 10
87.04756033087384
 20
95.40798386335359
 30
0.0
  0
VERTEX
  5
100B0
  8
LAYER_1
 62
     7
 10
87.68222290625
 20
95.20901142187498
 30
0.0
  0
VERTEX
  5
100B1
  8
LAYER_1
 62
     7
 10
88.29853990350117
 20
94.96623596737558
 30
0.0
  0
VERTEX
  5
100B2
  8
LAYER_1
 62
     7
 10
88.89501725925928
 20
94.6816552962963
 30
0.0
  0
VERTEX
  5
100B3
  8
LAYER_1
 62
     7
 10
89.47016091015625
 20
94.35726720507813
 30
0.0
  0
VERTEX
  5
100B4
  8
LAYER_1
 62
     7
 10
90.02247679282408
 20
93.99506949016204
 30
0.0
  0
VERTEX
  5
100B5
  8
LAYER_1
 62
     7
 10
90.55047084389467
 20
93.597059947989
 30
0.0
  0
VERTEX
  5
100B6
  8
LAYER_1
 62
     7
 10
91.052649
 20
93.165236375
 30
0.0
  0
VERTEX
  5
100B7
  8
LAYER_1
 62
     7
 10
91.52751719777199
 20
92.70159656763599
 30
0.0
  0
VERTEX
  5
100B8
  8
LAYER_1
 62
     7
 10
91.97358137384259
 20
92.20813832233797
 30
0.0
  0
VERTEX
  5
100B9
  8
LAYER_1
 62
     7
 10
92.38934746484375
 20
91.68685943554688
 30
0.0
  0
VERTEX
  5
100BA
  8
LAYER_1
 62
     7
 10
92.77332140740741
 20
91.13975770370371
 30
0.0
  0
VERTEX
  5
100BB
  8
LAYER_1
 62
     7
 10
93.1240091381655
 20
90.56883092324942
 30
0.0
  0
VERTEX
  5
100BC
  8
LAYER_1
 62
     7
 10
93.43991659375
 20
89.976076890625
 30
0.0
  0
VERTEX
  5
100BD
  8
LAYER_1
 62
     7
 10
93.71954971079282
 20
89.36349340227142
 30
0.0
  0
VERTEX
  5
100BE
  8
LAYER_1
 62
     7
 10
93.96141442592592
 20
88.73307825462963
 30
0.0
  0
VERTEX
  5
100BF
  8
LAYER_1
 62
     7
 10
94.16401667578126
 20
88.08682924414063
 30
0.0
  0
VERTEX
  5
100C0
  8
LAYER_1
 62
     7
 10
94.32586239699076
 20
87.42674416724539
 30
0.0
  0
VERTEX
  5
100C1
  8
LAYER_1
 62
     7
 10
94.44545752618635
 20
86.75482082038485
 30
0.0
  0
VERTEX
  5
100C2
  8
LAYER_1
 62
     7
 10
94.521308
 20
86.073057
 30
0.0
  0
SEQEND
  5
10400
  8
LAYER_1
 62
     7
  0
POLYLINE
  5
105
  8
LAYER_1
 62
     7
 66
     1
 10
0.0
 20
0.0
 30
0.0
  0
VERTEX
  5
100C3
  8
LAYER_1
 62
     7
 10
94.521308
 20
86.073057
 30
0.0
  0
VERTEX
  5
100C4
  8
LAYER_1
 62
     7
 10
94.55602047822627
 20
85.21618630439814
 30
0.0
  0
VERTEX
  5
100C5
  8
LAYER_1
 62
     7
 10
94.52712309664352
 20
84.37335060185185
 30
0.0
  0
VERTEX
  5
100C6
  8
LAYER_1
 62
     7
 10
94.43696138085937
 20
83.54636284375
 30
0.0
  0
VERTEX
  5
100C7
  8
LAYER_1
 62
     7
 10
94.2878808564815
 20
82.7370359814815
 30
0.0
  0
VERTEX
  5
100C8
  8
LAYER_1
 62
     7
 10
94.08222704911748
 20
81.9471829664352
 30
0.0
  0
VERTEX
  5
100C9
  8
LAYER_1
 62
     7
 10
93.82234548437499
 20
81.17861674999999
 30
0.0
  0
VERTEX
  5
100CA
  8
LAYER_1
 62
     7
 10
93.5105816878617
 20
80.43315028356481
 30
0.0
  0
VERTEX
  5
100CB
  8
LAYER_1
 62
     7
 10
93.14928118518519
 20
79.71259651851852
 30
0.0
  0
VERTEX
  5
100CC
  8
LAYER_1
 62
     7
 10
92.74078950195312
 20
79.01876840624999
 30
0.0
  0
VERTEX
  5
100CD
  8
LAYER_1
 62
     7
 10
92.28745216377315
 20
78.35347889814815
 30
0.0
  0
VERTEX
  5
100CE
  8
LAYER_1
 62
     7
 10
91.7916146962529
 20
77.71854094560184
 30
0.0
  0
VERTEX
  5
100CF
  8
LAYER_1
 62
     7
 10
91.255622625
 20
77.1157675
 30
0.0
  0
VERTEX
  5
100D0
  8
LAYER_1
 62
     7
 10
90.6818214756221
 20
76.54697151273149
 30
0.0
  0
VERTEX
  5
100D1
  8
LAYER_1
 62
     7
 10
90.07255677372686
 20
76.01396593518518
 30
0.0
  0
VERTEX
  5
100D2
  8
LAYER_1
 62
     7
 10
89.43017404492187
 20
75.51856371875
 30
0.0
  0
VERTEX
  5
100D3
  8
LAYER_1
 62
     7
 10
88.75701881481481
 20
75.06257781481482
 30
0.0
  0
VERTEX
  5
100D4
  8
LAYER_1
 62
     7
 10
88.05543660901331
 20
74.64782117476852
 30
0.0
  0
VERTEX
  5
100D5
  8
LAYER_1
 62
     7
 10
87.32777295312499
 20
74.27610675
 30
0.0
  0
VERTEX
  5
100D6
  8
LAYER_1
 62
     7
 10
86.57637337275753
 20
73.94924749189815
 30
0.0
  0
VERTEX
  5
100D7
  8
LAYER_1
 62
     7
 10
85.80358339351852
 20
73.66905635185185
 30
0.0
  0
VERTEX
  5
100D8
  8
LAYER_1
 62
     7
 10
85.01174854101562
 20
73.43734628125
 30
0.0
  0
VERTEX
  5
100D9
  8
LAYER_1
 62
     7
 10
84.20321434085649
 20
73.25593023148149
 30
0.0
  0
VERTEX
  5
100DA
  8
LAYER_1
 62
     7
 10
83.38032631864873
 20
73.12662115393519
 30
0.0
  0
VERTEX
  5
100DB
  8
LAYER_1
 62
     7
 10
82.54543
 20
73.051232
 30
0.0
  0
SEQEND
  5
10401
  8
LAYER_1
 62
     7
  0
POLYLINE
  5
106
  8
LAYER_1
 62
     7
 66
     1
 10
0.0
 20
0.0
 30
0.0
  0
VERTEX
  5
100DC
  8
LAYER_1
 62
     7
 10
82.54543
 20
73.051232
 30
0.0
  0
VERTEX
  5
100DD
  8
LAYER_1
 62
     7
 10
81.53578662319154
 20
73.03099440878181
 30
0.0
  0
VERTEX
  5
100DE
  8
LAYER_1
 62
     7
 10
80.5432752355324
 20
73.08432533275463
 30
0.0
  0
VERTEX
  5
100DF
  8
LAYER_1
 62
     7
 10
79.57003482617188
 20
73.20852206835937
 30
0.0
  0
VERTEX
  5
100E0
  8
LAYER_1
 62
     7
 10
78.61820438425926
 20
73.40088191203706
 30
0.0
  0
VERTEX
  5
100E1
  8
LAYER_1
 62
     7
 10
77.68992289894386
 20
73.65870216022859
 30
0.0
  0
VERTEX
  5
100E2
  8
LAYER_1
 62
     7
 10
76.78732935937498
 20
73.979280109375
 30
0.0
  0
VERTEX
  5
100E3
  8
LAYER_1
 62
     7
 10
75.91256275470197
 20
74.35991305591725
 30
0.0
  0
VERTEX
  5
100E4
  8
LAYER_1
 62
     7
 10
75.06776207407407
 20
74.7978982962963
 30
0.0
  0
VERTEX
  5
100E5
  8
LAYER_1
 62
     7
 10
74.25506630664061
 20
75.29053312695314
 30
0.0
  0
VERTEX
  5
100E6
  8
LAYER_1
 62
     7
 10
73.47661444155092
 20
75.83511484432871
 30
0.0
  0
VERTEX
  5
100E7
  8
LAYER_1
 62
     7
 10
72.73454546795428
 20
76.42894074486401
 30
0.0
  0
VERTEX
  5
100E8
  8
LAYER_1
 62
     7
 10
72.030998375
 20
77.069308125
 30
0.0
  0
VERTEX
  5
100E9
  8
LAYER_1
 62
     7
 10
71.36811215183738
 20
77.75351428117766
 30
0.0
  0
VERTEX
  5
100EA
  8
LAYER_1
 62
     7
 10
70.74802578761573
 20
78.47885650983797
 30
0.0
  0
VERTEX
  5
100EB
  8
LAYER_1
 62
     7
 10
70.17287827148438
 20
79.24263210742188
 30
0.0
  0
VERTEX
  5
100EC
  8
LAYER_1
 62
     7
 10
69.64480859259258
 20
80.04213837037037
 30
0.0
  0
VERTEX
  5
100ED
  8
LAYER_1
 62
     7
 10
69.1659557400897
 20
80.87467259512441
 30
0.0
  0
VERTEX
  5
100EE
  8
LAYER_1
 62
     7
 10
68.73845870312499
 20
81.73753207812499
 30
0.0
  0
VERTEX
  5
100EF
  8
LAYER_1
 62
     7
 10
68.3644564708478
 20
82.62801411581307
 30
0.0
  0
VERTEX
  5
100F0
  8
LAYER_1
 62
     7
 10
68.0460880324074
 20
83.54341600462962
 30
0.0
  0
VERTEX
  5
100F1
  8
LAYER_1
 62
     7
 10
67.78549237695312
 20
84.48103504101562
 30
0.0
  0
VERTEX
  5
100F2
  8
LAYER_1
 62
     7
 10
67.58480849363426
 20
85.43816852141204
 30
0.0
  0
VERTEX
  5
100F3
  8
LAYER_1
 62
     7
 10
67.4461753716001
 20
86.41211374225982
 30
0.0
  0
VERTEX
  5
100F4
  8
LAYER_1
 62
     7
 10
67.371732
 20
87.400168
 30
0.0
  0
SEQEND
  5
10402
  8
LAYER_1
 62
     7
  0
POLYLINE
  5
107
  8
LAYER_1
 62
     7
 66
     1
 10
0.0
 20
0.0
 30
0.0
  0
VERTEX
  5
100F5
  8
LAYER_1
 62
     7
 10
67.371732
 20
87.400168
 30
0.0
  0
VERTEX
  5
100F6
  8
LAYER_1
 62
     7
 10
67.36549230526619
 20
88.56253381532117
 30
0.0
  0
VERTEX
  5
100F7
  8
LAYER_1
 62
     7
 10
67.44286140046296
 20
89.70470585590277
 30
0.0
  0
VERTEX
  5
100F8
  8
LAYER_1
 62
     7
 10
67.60077392968749
 20
90.82421488867188
 30
0.0
  0
VERTEX
  5
100F9
  8
LAYER_1
 62
     7
 10
67.83616453703704
 20
91.91859168055556
 30
0.0
  0
VERTEX
  5
100FA
  8
LAYER_1
 62
     7
 10
68.14596786660879
 20
92.9853669984809
 30
0.0
  0
VERTEX
  5
100FB
  8
LAYER_1
 62
     7
 10
68.5271185625
 20
94.02207160937499
 30
0.0
  0
VERTEX
  5
100FC
  8
LAYER_1
 62
     7
 10
68.97655126880787
 20
95.02623628016492
 30
0.0
  0
VERTEX
  5
100FD
  8
LAYER_1
 62
     7
 10
69.49120062962963
 20
95.9953917777778
 30
0.0
  0
VERTEX
  5
100FE
  8
LAYER_1
 62
     7
 10
70.0680012890625
 20
96.92706886914063
 30
0.0
  0
VERTEX
  5
100FF
  8
LAYER_1
 62
     7
 10
70.7038878912037
 20
97.81879832118057
 30
0.0
  0
VERTEX
  5
10100
  8
LAYER_1
 62
     7
 10
71.39579508015046
 20
98.66811090082464
 30
0.0
  0
VERTEX
  5
10101
  8
LAYER_1
 62
     7
 10
72.1406575
 20
99.47253737499999
 30
0.0
  0
VERTEX
  5
10102
  8
LAYER_1
 62
     7
 10
72.93540979484953
 20
100.2296085106337
 30
0.0
  0
VERTEX
  5
10103
  8
LAYER_1
 62
     7
 10
73.7769866087963
 20
100.9368550746528
 30
0.0
  0
VERTEX
  5
10104
  8
LAYER_1
 62
     7
 10
74.6623225859375
 20
101.5918078339844
 30
0.0
  0
VERTEX
  5
10105
  8
LAYER_1
 62
     7
 10
75.58835237037037
 20
102.1919975555556
 30
0.0
  0
VERTEX
  5
10106
  8
LAYER_1
 62
     7
 10
76.55201060619213
 20
102.7349550062934
 30
0.0
  0
VERTEX
  5
10107
  8
LAYER_1
 62
     7
 10
77.5502319375
 20
103.218210953125
 30
0.0
  0
VERTEX
  5
10108
  8
LAYER_1
 62
     7
 10
78.5799510083912
 20
103.6392961629774
 30
0.0
  0
VERTEX
  5
10109
  8
LAYER_1
 62
     7
 10
79.63810246296296
 20
103.9957414027778
 30
0.0
  0
VERTEX
  5
1010A
  8
LAYER_1
 62
     7
 10
80.7216209453125
 20
104.2850774394531
 30
0.0
  0
VERTEX
  5
1010B
  8
LAYER_1
 62
     7
 10
81.82744109953704
 20
104.5048350399306
 30
0.0
  0
VERTEX
  5
1010C
  8
LAYER_1
 62
     7
 10
82.9524975697338
 20
104.6525449711372
 30
0.0
  0
VERTEX
  5
1010D
  8
LAYER_1
 62
     7
 10
84.093725
 20
104.725738
 30
0.0
  0
SEQEND
  5
10403
  8
LAYER_1
 62
     7
  0
POLYLINE
  5
108
  8
LAYER_1
 62
     7
 66
     1
 10
0.0
 20
0.0
 30
0.0
  0
VERTEX
  5
1010E
  8
LAYER_1
 62
     7
 10
84.093725
 20
104.725738
 30
0.0
  0
VERTEX
  5
1010F
  8
LAYER_1
 62
     7
 10
85.40879003421585
 20
104.718281104022
 30
0.0
  0
VERTEX
  5
10110
  8
LAYER_1
 62
     7
 10
86.70062127372687
 20
104.6171235613426
 30
0.0
  0
VERTEX
  5
10111
  8
LAYER_1
 62
     7
 10
87.96641654882814
 20
104.4256968398438
 30
0.0
  0
VERTEX
  5
10112
  8
LAYER_1
 62
     7
 10
89.20337368981482
 20
104.1474324074074
 30
0.0
  0
VERTEX
  5
10113
  8
LAYER_1
 62
     7
 10
90.40869052698206
 20
103.7857617319155
 30
0.0
  0
VERTEX
  5
10114
  8
LAYER_1
 62
     7
 10
91.579564890625
 20
103.34411628125
 30
0.0
  0
VERTEX
  5
10115
  8
LAYER_1
 62
     7
 10
92.71319461103877
 20
102.8259275232928
 30
0.0
  0
VERTEX
  5
10116
  8
LAYER_1
 62
     7
 10
93.80677751851853
 20
102.2346269259259
 30
0.0
  0
VERTEX
  5
10117
  8
LAYER_1
 62
     7
 10
94.85751144335939
 20
101.5736459570312
 30
0.0
  0
VERTEX
  5
10118
  8
LAYER_1
 62
     7
 10
95.86259421585649
 20
100.8464160844907
 30
0.0
  0
VERTEX
  5
10119
  8
LAYER_1
 62
     7
 10
96.81922366630498
 20
100.0563687761863
 30
0.0
  0
VERTEX
  5
1011A
  8
LAYER_1
 62
     7
 10
97.724597625
 20
99.2069355
 30
0.0
  0
VERTEX
  5
1011B
  8
LAYER_1
 62
     7
 10
98.57591392223668
 20
98.30154772381366
 30
0.0
  0
VERTEX
  5
1011C
  8
LAYER_1
 62
     7
 10
99.37037038831019
 20
97.34363691550926
 30
0.0
  0
VERTEX
  5
1011D
  8
LAYER_1
 62
     7
 10
100.1051648535156
 20
96.33663454296875
 30
0.0
  0
VERTEX
  5
1011E
  8
LAYER_1
 62
     7
 10
100.7774951481482
 20
95.28397207407409
 30
0.0
  0
VERTEX
  5
1011F
  8
LAYER_1
 62
     7
 10
101.3845591025029
 20
94.18908097670717
 30
0.0
  0
VERTEX
  5
10120
  8
LAYER_1
 62
     7
 10
101.923554546875
 20
93.05539271875
 30
0.0
  0
VERTEX
  5
10121
  8
LAYER_1
 62
     7
 10
102.3916793115596
 20
91.8863387680845
 30
0.0
  0
VERTEX
  5
10122
  8
LAYER_1
 62
     7
 10
102.7861312268519
 20
90.6853505925926
 30
0.0
  0
VERTEX
  5
10123
  8
LAYER_1
 62
     7
 10
103.1041081230469
 20
89.45585966015626
 30
0.0
  0
VERTEX
  5
10124
  8
LAYER_1
 62
     7
 10
103.3428078304398
 20
88.20129743865742
 30
0.0
  0
VERTEX
  5
10125
  8
LAYER_1
 62
     7
 10
103.4994281793258
 20
86.92509539597802
 30
0.0
  0
VERTEX
  5
10126
  8
LAYER_1
 62
     7
 10
103.571167
 20
85.630685
 30
0.0
  0
SEQEND
  5
10404
  8
LAYER_1
 62
     7
  0
POLYLINE
  5
109
  8
LAYER_1
 62
     7
 66
     1
 10
0.0
 20
0.0
 30
0.0
  0
VERTEX
  5
10127
  8
LAYER_1
 62
     7
 10
103.571167
 20
85.630685
 30
0.0
  0
VERTEX
  5
10128
  8
LAYER_1
 62
     7
 10
103.5502157968027
 20
84.16293277112268
 30
0.0
  0
VERTEX
  5
10129
  8
LAYER_1
 62
     7
 10
103.4254374577546
 20
82.72143987731481
 30
0.0
  0
VERTEX
  5
1012A
  8
LAYER_1
 62
     7
 10
103.2006318886719
 20
81.3093432578125
 30
0.0
  0
VERTEX
  5
1012B
  8
LAYER_1
 62
     7
 10
102.8795989953704
 20
79.92977985185186
 30
0.0
  0
VERTEX
  5
1012C
  8
LAYER_1
 62
     7
 10
102.4661386836661
 20
78.58588659866898
 30
0.0
  0
VERTEX
  5
1012D
  8
LAYER_1
 62
     7
 10
101.964050859375
 20
77.28080043749999
 30
0.0
  0
VERTEX
  5
1012E
  8
LAYER_1
 62
     7
 10
101.3771354283131
 20
76.01765830758102
 30
0.0
  0
VERTEX
  5
1012F
  8
LAYER_1
 62
     7
 10
100.7091922962963
 20
74.79959714814815
 30
0.0
  0
VERTEX
  5
10130
  8
LAYER_1
 62
     7
 10
99.96402136914062
 20
73.6297538984375
 30
0.0
  0
VERTEX
  5
10131
  8
LAYER_1
 62
     7
 10
99.14542255266203
 20
72.51126549768519
 30
0.0
  0
VERTEX
  5
10132
  8
LAYER_1
 62
     7
 10
98.2571957526765
 20
71.44726888512731
 30
0.0
  0
VERTEX
  5
10133
  8
LAYER_1
 62
     7
 10
97.303140875
 20
70.440901
 30
0.0
  0
VERTEX
  5
10134
  8
LAYER_1
 62
     7
 10
96.2870578254485
 20
69.49529878153936
 30
0.0
  0
VERTEX
  5
10135
  8
LAYER_1
 62
     7
 10
95.21274650983797
 20
68.6135991689815
 30
0.0
  0
VERTEX
  5
10136
  8
LAYER_1
 62
     7
 10
94.08400683398438
 20
67.79893910156251
 30
0.0
  0
VERTEX
  5
10137
  8
LAYER_1
 62
     7
 10
92.9046387037037
 20
67.05445551851852
 30
0.0
  0
VERTEX
  5
10138
  8
LAYER_1
 62
     7
 10
91.67844202481191
 20
66.38328535908566
 30
0.0
  0
VERTEX
  5
10139
  8
LAYER_1
 62
     7
 10
90.40921670312501
 20
65.78856556250001
 30
0.0
  0
VERTEX
  5
1013A
  8
LAYER_1
 62
     7
 10
89.10076264445892
 20
65.2734330679977
 30
0.0
  0
VERTEX
  5
1013B
  8
LAYER_1
 62
     7
 10
87.75687975462964
 20
64.84102481481482
 30
0.0
  0
VERTEX
  5
1013C
  8
LAYER_1
 62
     7
 10
86.38136793945314
 20
64.4944777421875
 30
0.0
  0
VERTEX
  5
1013D
  8
LAYER_1
 62
     7
 10
84.9780271047454
 20
64.23692878935186
 30
0.0
  0
VERTEX
  5
1013E
  8
LAYER_1
 62
     7
 10
83.55065715632236
 20
64.07151489554398
 30
0.0
  0
VERTEX
  5
1013F
  8
LAYER_1
 62
     7
 10
82.103058
 20
64.001373
 30
0.0
  0
SEQEND
  5
10405
  8
LAYER_1
 62
     7
  0
POLYLINE
  5
10A
  8
LAYER_1
 62
     7
 66
     1
 10
0.0
 20
0.0
 30
0.0
  0
VERTEX
  5
10140
  8
LAYER_1
 62
     7
 10
82.103058
 20
64.001373
 30
0.0
  0
VERTEX
  5
10141
  8
LAYER_1
 62
     7
 10
80.48262446600116
 20
64.03567673206018
 30
0.0
  0
VERTEX
  5
10142
  8
LAYER_1
 62
     7
 10
78.89146570717593
 20
64.18395843981482
 30
0.0
  0
VERTEX
  5
10143
  8
LAYER_1
 62
     7
 10
77.33305473828125
 20
64.44204814062499
 30
0.0
  0
VERTEX
  5
10144
  8
LAYER_1
 62
     7
 10
75.81086457407409
 20
64.80577585185186
 30
0.0
  0
VERTEX
  5
10145
  8
LAYER_1
 62
     7
 10
74.32836822931134
 20
65.27097159085648
 30
0.0
  0
VERTEX
  5
10146
  8
LAYER_1
 62
     7
 10
72.88903871875
 20
65.83346537499999
 30
0.0
  0
VERTEX
  5
10147
  8
LAYER_1
 62
     7
 10
71.496349057147
 20
66.48908722164353
 30
0.0
  0
VERTEX
  5
10148
  8
LAYER_1
 62
     7
 10
70.15377225925926
 20
67.23366714814814
 30
0.0
  0
VERTEX
  5
10149
  8
LAYER_1
 62
     7
 10
68.86478133984374
 20
68.063035171875
 30
0.0
  0
VERTEX
  5
1014A
  8
LAYER_1
 62
     7
 10
67.6328493136574
 20
68.97302131018519
 30
0.0
  0
VERTEX
  5
1014B
  8
LAYER_1
 62
     7
 10
66.46144919545718
 20
69.95945558043981
 30
0.0
  0
VERTEX
  5
1014C
  8
LAYER_1
 62
     7
 10
65.354054
 20
71.018168
 30
0.0
  0
VERTEX
  5
1014D
  8
LAYER_1
 62
     7
 10
64.31413674204282
 20
72.14498858622684
 30
0.0
  0
VERTEX
  5
1014E
  8
LAYER_1
 62
     7
 10
63.3451704363426
 20
73.33574735648148
 30
0.0
  0
VERTEX
  5
1014F
  8
LAYER_1
 62
     7
 10
62.45062809765625
 20
74.586274328125
 30
0.0
  0
VERTEX
  5
10150
  8
LAYER_1
 62
     7
 10
61.63398274074074
 20
75.8923995185185
 30
0.0
  0
VERTEX
  5
10151
  8
LAYER_1
 62
     7
 10
60.89870738035301
 20
77.24995294502314
 30
0.0
  0
VERTEX
  5
10152
  8
LAYER_1
 62
     7
 10
60.24827503125
 20
78.65476462499998
 30
0.0
  0
VERTEX
  5
10153
  8
LAYER_1
 62
     7
 10
59.68615870818866
 20
80.10266457581018
 30
0.0
  0
VERTEX
  5
10154
  8
LAYER_1
 62
     7
 10
59.21583142592593
 20
81.5894828148148
 30
0.0
  0
VERTEX
  5
10155
  8
LAYER_1
 62
     7
 10
58.84076619921875
 20
83.11104935937499
 30
0.0
  0
VERTEX
  5
10156
  8
LAYER_1
 62
     7
 10
58.56443604282408
 20
84.66319422685184
 30
0.0
  0
VERTEX
  5
10157
  8
LAYER_1
 62
     7
 10
58.39031397149884
 20
86.24174743460647
 30
0.0
  0
VERTEX
  5
10158
  8
LAYER_1
 62
     7
 10
58.321873
 20
87.842539
 30
0.0
  0
SEQEND
  5
10406
  8
LAYER_1
 62
     7
  0
POLYLINE
  5
10B
  8
LAYER_1
 62
     7
 66
     1
 10
0.0
 20
0.0
 30
0.0
  0
VERTEX
  5
10159
  8
LAYER_1
 62
     7
 10
58.321873
 20
87.842539
 30
0.0
  0
VERTEX
  5
1015A
  8
LAYER_1
 62
     7
 10
58.36942602054398
 20
89.6156508292824
 30
0.0
  0
VERTEX
  5
1015B
  8
LAYER_1
 62
     7
 10
58.54112558101851
 20
91.3564797800926
 30
0.0
  0
VERTEX
  5
1015C
  8
LAYER_1
 62
     7
 10
58.8324304296875
 20
93.061215796875
 30
0.0
  0
VERTEX
  5
1015D
  8
LAYER_1
 62
     7
 10
59.23879931481483
 20
94.72604882407408
 30
0.0
  0
VERTEX
  5
1015E
  8
LAYER_1
 62
     7
 10
59.75569098466435
 20
96.34716880613425
 30
0.0
  0
VERTEX
  5
1015F
  8
LAYER_1
 62
     7
 10
60.3785641875
 20
97.9207656875
 30
0.0
  0
VERTEX
  5
10160
  8
LAYER_1
 62
     7
 10
61.10287767158565
 20
99.44302941261574
 30
0.0
  0
VERTEX
  5
10161
  8
LAYER_1
 62
     7
 10
61.92409018518519
 20
100.9101499259259
 30
0.0
  0
VERTEX
  5
10162
  8
LAYER_1
 62
     7
 10
62.8376604765625
 20
102.318317171875
 30
0.0
  0
VERTEX
  5
10163
  8
LAYER_1
 62
     7
 10
63.83904729398148
 20
103.6637210949074
 30
0.0
  0
VERTEX
  5
10164
  8
LAYER_1
 62
     7
 10
64.92370938570602
 20
104.9425516394676
 30
0.0
  0
VERTEX
  5
10165
  8
LAYER_1
 62
     7
 10
66.0871055
 20
106.15099875
 30
0.0
  0
VERTEX
  5
10166
  8
LAYER_1
 62
     7
 10
67.32469438512732
 20
107.2852523709491
 30
0.0
  0
VERTEX
  5
10167
  8
LAYER_1
 62
     7
 10
68.63193478935185
 20
108.3415024467593
 30
0.0
  0
VERTEX
  5
10168
  8
LAYER_1
 62
     7
 10
70.00428546093751
 20
109.315938921875
 30
0.0
  0
VERTEX
  5
10169
  8
LAYER_1
 62
     7
 10
71.43720514814815
 20
110.2047517407407
 30
0.0
  0
VERTEX
  5
1016A
  8
LAYER_1
 62
     7
 10
72.92615259924769
 20
111.0041308478009
 30
0.0
  0
VERTEX
  5
1016B
  8
LAYER_1
 62
     7
 10
74.4665865625
 20
111.7102661875
 30
0.0
  0
VERTEX
  5
1016C
  8
LAYER_1
 62
     7
 10
76.05396578616897
 20
112.3193477042824
 30
0.0
  0
VERTEX
  5
1016D
  8
LAYER_1
 62
     7
 10
77.68374901851851
 20
112.8275653425926
 30
0.0
  0
VERTEX
  5
1016E
  8
LAYER_1
 62
     7
 10
79.35139500781249
 20
113.231109046875
 30
0.0
  0
VERTEX
  5
1016F
  8
LAYER_1
 62
     7
 10
81.0523625023148
 20
113.5261687615741
 30
0.0
  0
VERTEX
  5
10170
  8
LAYER_1
 62
     7
 10
82.78211025028934
 20
113.7089344311343
 30
0.0
  0
VERTEX
  5
10171
  8
LAYER_1
 62
     7
 10
84.536097
 20
113.775596
 30
0.0
  0
SEQEND
  5
10407
  8
LAYER_1
 62
     7
  0
POLYLINE
  5
10C
  8
LAYER_1
 62
     7
 66
     1
 10
0.0
 20
0.0
 30
0.0
  0
VERTEX
  5
10172
  8
LAYER_1
 62
     7
 10
84.536097
 20
113.775596
 30
0.0
  0
VERTEX
  5
10173
  8
LAYER_1
 62
     7
 10
86.46188537760418
 20
113.7148716804832
 30
0.0
  0
VERTEX
  5
10174
  8
LAYER_1
 62
     7
 10
88.35238829166667
 20
113.5198188396991
 30
0.0
  0
VERTEX
  5
10175
  8
LAYER_1
 62
     7
 10
90.2034579140625
 20
113.1953509042969
 30
0.0
  0
VERTEX
  5
10176
  8
LAYER_1
 62
     7
 10
92.01094641666668
 20
112.7463813009259
 30
0.0
  0
VERTEX
  5
10177
  8
LAYER_1
 62
     7
 10
93.77070597135416
 20
112.1778234562355
 30
0.0
  0
VERTEX
  5
10178
  8
LAYER_1
 62
     7
 10
95.47858874999999
 20
111.494590796875
 30
0.0
  0
VERTEX
  5
10179
  8
LAYER_1
 62
     7
 10
97.13044692447916
 20
110.7015967494936
 30
0.0
  0
VERTEX
  5
1017A
  8
LAYER_1
 62
     7
 10
98.72213266666665
 20
109.8037547407407
 30
0.0
  0
VERTEX
  5
1017B
  8
LAYER_1
 62
     7
 10
100.2494981484375
 20
108.8059781972656
 30
0.0
  0
VERTEX
  5
1017C
  8
LAYER_1
 62
     7
 10
101.7083955416667
 20
107.7131805457176
 30
0.0
  0
VERTEX
  5
1017D
  8
LAYER_1
 62
     7
 10
103.0946770182292
 20
106.5302752127459
 30
0.0
  0
VERTEX
  5
1017E
  8
LAYER_1
 62
     7
 10
104.40419475
 20
105.262175625
 30
0.0
  0
VERTEX
  5
1017F
  8
LAYER_1
 62
     7
 10
105.6328009088542
 20
103.913795209129
 30
0.0
  0
VERTEX
  5
10180
  8
LAYER_1
 62
     7
 10
106.7763476666667
 20
102.4900473917824
 30
0.0
  0
VERTEX
  5
10181
  8
LAYER_1
 62
     7
 10
107.8306871953125
 20
100.9958455996094
 30
0.0
  0
VERTEX
  5
10182
  8
LAYER_1
 62
     7
 10
108.7916716666667
 20
99.43610325925927
 30
0.0
  0
VERTEX
  5
10183
  8
LAYER_1
 62
     7
 10
109.6551532526042
 20
97.81573379738137
 30
0.0
  0
VERTEX
  5
10184
  8
LAYER_1
 62
     7
 10
110.416984125
 20
96.139650640625
 30
0.0
  0
VERTEX
  5
10185
  8
LAYER_1
 62
     7
 10
111.0730164557292
 20
94.41276721563948
 30
0.0
  0
VERTEX
  5
10186
  8
LAYER_1
 62
     7
 10
111.6191024166667
 20
92.63999694907409
 30
0.0
  0
VERTEX
  5
10187
  8
LAYER_1
 62
     7
 10
112.0510941796875
 20
90.82625326757814
 30
0.0
  0
VERTEX
  5
10188
  8
LAYER_1
 62
     7
 10
112.3648439166667
 20
88.97644959780095
 30
0.0
  0
VERTEX
  5
10189
  8
LAYER_1
 62
     7
 10
112.5562037994792
 20
87.0954993663918
 30
0.0
  0
VERTEX
  5
1018A
  8
LAYER_1
 62
     7
 10
112.621026
 20
85.188316
 30
0.0
  0
SEQEND
  5
10408
  8
LAYER_1
 62
     7
  0
POLYLINE
  5
10D
  8
LAYER_1
 62
     7
 66
     1
 10
0.0
 20
0.0
 30
0.0
  0
VERTEX
  5
1018B
  8
LAYER_1
 62
     7
 10
112.621026
 20
85.188316
 30
0.0
  0
VERTEX
  5
1018C
  8
LAYER_1
 62
     7
 10
112.5471831346933
 20
83.10985165292244
 30
0.0
  0
VERTEX
  5
1018D
  8
LAYER_1
 62
     7
 10
112.328820681713
 20
81.0696711400463
 30
0.0
  0
VERTEX
  5
1018E
  8
LAYER_1
 62
     7
 10
111.9712248554687
 20
79.07226062890625
 30
0.0
  0
VERTEX
  5
1018F
  8
LAYER_1
 62
     7
 10
111.4796818703704
 20
77.12210628703704
 30
0.0
  0
VERTEX
  5
10190
  8
LAYER_1
 62
     7
 10
110.8594779408276
 20
75.22369428197337
 30
0.0
  0
VERTEX
  5
10191
  8
LAYER_1
 62
     7
 10
110.11589928125
 20
73.38151078124999
 30
0.0
  0
VERTEX
  5
10192
  8
LAYER_1
 62
     7
 10
109.2542321060475
 20
71.60004195240163
 30
0.0
  0
VERTEX
  5
10193
  8
LAYER_1
 62
     7
 10
108.2797626296296
 20
69.88377396296296
 30
0.0
  0
VERTEX
  5
10194
  8
LAYER_1
 62
     7
 10
107.1977770664062
 20
68.23719298046875
 30
0.0
  0
VERTEX
  5
10195
  8
LAYER_1
 62
     7
 10
106.013561630787
 20
66.6647851724537
 30
0.0
  0
VERTEX
  5
10196
  8
LAYER_1
 62
     7
 10
104.7324025371817
 20
65.17103670645254
 30
0.0
  0
VERTEX
  5
10197
  8
LAYER_1
 62
     7
 10
103.359586
 20
63.76043374999999
 30
0.0
  0
VERTEX
  5
10198
  8
LAYER_1
 62
     7
 10
101.9003982336516
 20
62.43746247063078
 30
0.0
  0
VERTEX
  5
10199
  8
LAYER_1
 62
     7
 10
100.3601254525463
 20
61.20660903587963
 30
0.0
  0
VERTEX
  5
1019A
  8
LAYER_1
 62
     7
 10
98.74405387109375
 20
60.07235961328125
 30
0.0
  0
VERTEX
  5
1019B
  8
LAYER_1
 62
     7
 10
97.0574697037037
 20
59.03920037037037
 30
0.0
  0
VERTEX
  5
1019C
  8
LAYER_1
 62
     7
 10
95.3056591647859
 20
58.11161747468171
 30
0.0
  0
VERTEX
  5
1019D
  8
LAYER_1
 62
     7
 10
93.49390846875
 20
57.29409709375
 30
0.0
  0
VERTEX
  5
1019E
  8
LAYER_1
 62
     7
 10
91.6275038300058
 20
56.59112539510996
 30
0.0
  0
VERTEX
  5
1019F
  8
LAYER_1
 62
     7
 10
89.71173146296297
 20
56.0071885462963
 30
0.0
  0
VERTEX
  5
101A0
  8
LAYER_1
 62
     7
 10
87.75187758203127
 20
55.54677271484375
 30
0.0
  0
VERTEX
  5
101A1
  8
LAYER_1
 62
     7
 10
85.75322840162039
 20
55.21436406828704
 30
0.0
  0
VERTEX
  5
101A2
  8
LAYER_1
 62
     7
 10
83.72107013614007
 20
55.01444877416088
 30
0.0
  0
VERTEX
  5
101A3
  8
LAYER_1
 62
     7
 10
81.660689
 20
54.951513
 30
0.0
  0
SEQEND
  5
10409
  8
LAYER_1
 62
     7
  0
POLYLINE
  5
10E
  8
LAYER_1
 62
     7
 66
     1
 10
0.0
 20
0.0
 30
0.0
  0
VERTEX
  5
101A4
  8
LAYER_1
 62
     7
 10
81.660689
 20
54.951513
 30
0.0
  0
VERTEX
  5
101A5
  8
LAYER_1
 62
     7
 10
79.42954921274595
 20
55.03841328255208
 30
0.0
  0
VERTEX
  5
101A6
  8
LAYER_1
 62
     7
 10
77.23968824363426
 20
55.28003473958332
 30
0.0
  0
VERTEX
  5
101A7
  8
LAYER_1
 62
     7
 10
75.09593105664064
 20
55.67071766015625
 30
0.0
  0
VERTEX
  5
101A8
  8
LAYER_1
 62
     7
 10
73.00310261574076
 20
56.20480233333333
 30
0.0
  0
VERTEX
  5
101A9
  8
LAYER_1
 62
     7
 10
70.9660278849103
 20
56.87662904817708
 30
0.0
  0
VERTEX
  5
101AA
  8
LAYER_1
 62
     7
 10
68.989531828125
 20
57.68053809374999
 30
0.0
  0
VERTEX
  5
101AB
  8
LAYER_1
 62
     7
 10
67.07843940936054
 20
58.61086975911458
 30
0.0
  0
VERTEX
  5
101AC
  8
LAYER_1
 62
     7
 10
65.23757559259259
 20
59.66196433333334
 30
0.0
  0
VERTEX
  5
101AD
  8
LAYER_1
 62
     7
 10
63.47176534179687
 20
60.82816210546876
 30
0.0
  0
VERTEX
  5
101AE
  8
LAYER_1
 62
     7
 10
61.78583362094908
 20
62.10380336458333
 30
0.0
  0
VERTEX
  5
101AF
  8
LAYER_1
 62
     7
 10
60.18460539402489
 20
63.48322839973958
 30
0.0
  0
VERTEX
  5
101B0
  8
LAYER_1
 62
     7
 10
58.67290562500001
 20
64.96077749999999
 30
0.0
  0
VERTEX
  5
101B1
  8
LAYER_1
 62
     7
 10
57.25555927785012
 20
66.53079095442708
 30
0.0
  0
VERTEX
  5
101B2
  8
LAYER_1
 62
     7
 10
55.93739131655094
 20
68.18760905208333
 30
0.0
  0
VERTEX
  5
101B3
  8
LAYER_1
 62
     7
 10
54.72322670507813
 20
69.92557208203125
 30
0.0
  0
VERTEX
  5
101B4
  8
LAYER_1
 62
     7
 10
53.61789040740742
 20
71.73902033333333
 30
0.0
  0
VERTEX
  5
101B5
  8
LAYER_1
 62
     7
 10
52.62620738751448
 20
73.62229409505207
 30
0.0
  0
VERTEX
  5
101B6
  8
LAYER_1
 62
     7
 10
51.753002609375
 20
75.56973365624998
 30
0.0
  0
VERTEX
  5
101B7
  8
LAYER_1
 62
     7
 10
51.00310103696471
 20
77.57567930598957
 30
0.0
  0
VERTEX
  5
101B8
  8
LAYER_1
 62
     7
 10
50.38132763425926
 20
79.63447133333332
 30
0.0
  0
VERTEX
  5
101B9
  8
LAYER_1
 62
     7
 10
49.89250736523438
 20
81.74045002734374
 30
0.0
  0
VERTEX
  5
101BA
  8
LAYER_1
 62
     7
 10
49.54146519386575
 20
83.88795567708333
 30
0.0
  0
VERTEX
  5
101BB
  8
LAYER_1
 62
     7
 10
49.33302608412905
 20
86.07132857161456
 30
0.0
  0
VERTEX
  5
101BC
  8
LAYER_1
 62
     7
 10
49.272015
 20
88.284909
 30
0.0
  0
SEQEND
  5
1040A
  8
LAYER_1
 62
     7
  0
POLYLINE
  5
10F
  8
LAYER_1
 62
     7
 66
     1
 10
0.0
 20
0.0
 30
0.0
  0
VERTEX
  5
101BD
  8
LAYER_1
 62
     7
 10
49.272015
 20
88.284909
 30
0.0
  0
VERTEX
  5
101BE
  8
LAYER_1
 62
     7
 10
49.37194173842592
 20
90.66872419249133
 30
0.0
  0
VERTEX
  5
101BF
  8
LAYER_1
 62
     7
 10
49.63679657407408
 20
93.00826826909721
 30
0.0
  0
VERTEX
  5
101C0
  8
LAYER_1
 62
     7
 10
50.0605459375
 20
95.29837710351562
 30
0.0
  0
VERTEX
  5
101C1
  8
LAYER_1
 62
     7
 10
50.63715625925926
 20
97.53388656944446
 30
0.0
  0
VERTEX
  5
101C2
  8
LAYER_1
 62
     7
 10
51.36059396990741
 20
99.7096325405816
 30
0.0
  0
VERTEX
  5
101C3
  8
LAYER_1
 62
     7
 10
52.22482549999999
 20
101.820450890625
 30
0.0
  0
VERTEX
  5
101C4
  8
LAYER_1
 62
     7
 10
53.22381728009259
 20
103.8611774932726
 30
0.0
  0
VERTEX
  5
101C5
  8
LAYER_1
 62
     7
 10
54.35153574074074
 20
105.8266482222222
 30
0.0
  0
VERTEX
  5
101C6
  8
LAYER_1
 62
     7
 10
55.6019473125
 20
107.7116989511719
 30
0.0
  0
VERTEX
  5
101C7
  8
LAYER_1
 62
     7
 10
56.96901842592592
 20
109.5111655538194
 30
0.0
  0
VERTEX
  5
101C8
  8
LAYER_1
 62
     7
 10
58.44671551157408
 20
111.2198839038629
 30
0.0
  0
VERTEX
  5
101C9
  8
LAYER_1
 62
     7
 10
60.029005
 20
112.832689875
 30
0.0
  0
VERTEX
  5
101CA
  8
LAYER_1
 62
     7
 10
61.70985332175925
 20
114.3444193409288
 30
0.0
  0
VERTEX
  5
101CB
  8
LAYER_1
 62
     7
 10
63.4832269074074
 20
115.7499081753472
 30
0.0
  0
VERTEX
  5
101CC
  8
LAYER_1
 62
     7
 10
65.34309218749999
 20
117.0439922519531
 30
0.0
  0
VERTEX
  5
101CD
  8
LAYER_1
 62
     7
 10
67.28341559259258
 20
118.2215074444444
 30
0.0
  0
VERTEX
  5
101CE
  8
LAYER_1
 62
     7
 10
69.29816355324073
 20
119.2772896265191
 30
0.0
  0
VERTEX
  5
101CF
  8
LAYER_1
 62
     7
 10
71.38130249999999
 20
120.206174671875
 30
0.0
  0
VERTEX
  5
101D0
  8
LAYER_1
 62
     7
 10
73.52679886342591
 20
121.0029984542101
 30
0.0
  0
VERTEX
  5
101D1
  8
LAYER_1
 62
     7
 10
75.72861907407405
 20
121.6625968472222
 30
0.0
  0
VERTEX
  5
101D2
  8
LAYER_1
 62
     7
 10
77.98072956249997
 20
122.1798057246094
 30
0.0
  0
VERTEX
  5
101D3
  8
LAYER_1
 62
     7
 10
80.27709675925924
 20
122.5494609600694
 30
0.0
  0
VERTEX
  5
101D4
  8
LAYER_1
 62
     7
 10
82.61168709490738
 20
122.7663984273003
 30
0.0
  0
VERTEX
  5
101D5
  8
LAYER_1
 62
     7
 10
84.978467
 20
122.825454
 30
0.0
  0
SEQEND
  5
1040B
  8
LAYER_1
 62
     7
  0
POLYLINE
  5
110
  8
LAYER_1
 62
     7
 66
     1
 10
0.0
 20
0.0
 30
0.0
  0
VERTEX
  5
101D6
  8
LAYER_1
 62
     7
 10
84.978467
 20
122.825454
 30
0.0
  0
VERTEX
  5
101D7
  8
LAYER_1
 62
     7
 10
87.51495765776907
 20
122.7125314023437
 30
0.0
  0
VERTEX
  5
101D8
  8
LAYER_1
 62
     7
 10
90.00418707465276
 20
122.42446846875
 30
0.0
  0
VERTEX
  5
101D9
  8
LAYER_1
 62
     7
 10
92.44065166601563
 20
121.9676729882812
 30
0.0
  0
VERTEX
  5
101DA
  8
LAYER_1
 62
     7
 10
94.81884784722223
 20
121.34855275
 30
0.0
  0
VERTEX
  5
101DB
  8
LAYER_1
 62
     7
 10
97.13327203363714
 20
120.5735155429688
 30
0.0
  0
VERTEX
  5
101DC
  8
LAYER_1
 62
     7
 10
99.37842064062498
 20
119.64896915625
 30
0.0
  0
VERTEX
  5
101DD
  8
LAYER_1
 62
     7
 10
101.5487900835503
 20
118.5813213789062
 30
0.0
  0
VERTEX
  5
101DE
  8
LAYER_1
 62
     7
 10
103.6388767777778
 20
117.37698
 30
0.0
  0
VERTEX
  5
101DF
  8
LAYER_1
 62
     7
 10
105.6431771386719
 20
116.0423528085937
 30
0.0
  0
VERTEX
  5
101E0
  8
LAYER_1
 62
     7
 10
107.5561875815972
 20
114.58384759375
 30
0.0
  0
VERTEX
  5
101E1
  8
LAYER_1
 62
     7
 10
109.3724045219184
 20
113.0078721445312
 30
0.0
  0
VERTEX
  5
101E2
  8
LAYER_1
 62
     7
 10
111.086324375
 20
111.32083425
 30
0.0
  0
VERTEX
  5
101E3
  8
LAYER_1
 62
     7
 10
112.6924435562066
 20
109.5291416992188
 30
0.0
  0
VERTEX
  5
101E4
  8
LAYER_1
 62
     7
 10
114.1852584809028
 20
107.63920228125
 30
0.0
  0
VERTEX
  5
101E5
  8
LAYER_1
 62
     7
 10
115.5592655644531
 20
105.6574237851563
 30
0.0
  0
VERTEX
  5
101E6
  8
LAYER_1
 62
     7
 10
116.8089612222222
 20
103.590214
 30
0.0
  0
VERTEX
  5
101E7
  8
LAYER_1
 62
     7
 10
117.9288418695747
 20
101.4439807148438
 30
0.0
  0
VERTEX
  5
101E8
  8
LAYER_1
 62
     7
 10
118.913403921875
 20
99.22513171875
 30
0.0
  0
VERTEX
  5
101E9
  8
LAYER_1
 62
     7
 10
119.7571437944878
 20
96.94007480078126
 30
0.0
  0
VERTEX
  5
101EA
  8
LAYER_1
 62
     7
 10
120.4545579027778
 20
94.59521775
 30
0.0
  0
VERTEX
  5
101EB
  8
LAYER_1
 62
     7
 10
121.0001426621094
 20
92.19696835546877
 30
0.0
  0
VERTEX
  5
101EC
  8
LAYER_1
 62
     7
 10
121.3883944878472
 20
89.75173440625002
 30
0.0
  0
VERTEX
  5
101ED
  8
LAYER_1
 62
     7
 10
121.6138097953559
 20
87.26592369140627
 30
0.0
  0
VERTEX
  5
101EE
  8
LAYER_1
 62
     7
 10
121.670885
 20
84.745944
 30
0.0
  0
SEQEND
  5
1040C
  8
LAYER_1
 62
     7
  0
POLYLINE
  5
111
  8
LAYER_1
 62
     7
 66
     1
 10
0.0
 20
0.0
 30
0.0
  0
VERTEX
  5
101EF
  8
LAYER_1
 62
     7
 10
121.670885
 20
84.745944
 30
0.0
  0
VERTEX
  5
101F0
  8
LAYER_1
 62
     7
 10
121.5449915446325
 20
82.05677775231479
 30
0.0
  0
VERTEX
  5
101F1
  8
LAYER_1
 62
     7
 10
121.2337412112269
 20
79.41786103935185
 30
0.0
  0
VERTEX
  5
101F2
  8
LAYER_1
 62
     7
 10
120.7439162988281
 20
76.83503715625001
 30
0.0
  0
VERTEX
  5
101F3
  8
LAYER_1
 62
     7
 10
120.0822991064815
 20
74.31414939814816
 30
0.0
  0
VERTEX
  5
101F4
  8
LAYER_1
 62
     7
 10
119.2556719332321
 20
71.86104106018519
 30
0.0
  0
VERTEX
  5
101F5
  8
LAYER_1
 62
     7
 10
118.270817078125
 20
69.48155543749999
 30
0.0
  0
VERTEX
  5
101F6
  8
LAYER_1
 62
     7
 10
117.1345168402054
 20
67.18153582523149
 30
0.0
  0
VERTEX
  5
101F7
  8
LAYER_1
 62
     7
 10
115.8535535185185
 20
64.96682551851852
 30
0.0
  0
VERTEX
  5
101F8
  8
LAYER_1
 62
     7
 10
114.4347094121094
 20
62.8432678125
 30
0.0
  0
VERTEX
  5
101F9
  8
LAYER_1
 62
     7
 10
112.8847668200231
 20
60.81670600231481
 30
0.0
  0
VERTEX
  5
101FA
  8
LAYER_1
 62
     7
 10
111.210508041305
 20
58.89298338310185
 30
0.0
  0
VERTEX
  5
101FB
  8
LAYER_1
 62
     7
 10
109.418715375
 20
57.07794325
 30
0.0
  0
VERTEX
  5
101FC
  8
LAYER_1
 62
     7
 10
107.5161711201534
 20
55.37742889814815
 30
0.0
  0
VERTEX
  5
101FD
  8
LAYER_1
 62
     7
 10
105.5096575758102
 20
53.79728362268519
 30
0.0
  0
VERTEX
  5
101FE
  8
LAYER_1
 62
     7
 10
103.4059570410156
 20
52.34335071875
 30
0.0
  0
VERTEX
  5
101FF
  8
LAYER_1
 62
     7
 10
101.2118518148148
 20
51.02147348148149
 30
0.0
  0
VERTEX
  5
10200
  8
LAYER_1
 62
     7
 10
98.9341241962529
 20
49.83749520601852
 30
0.0
  0
VERTEX
  5
10201
  8
LAYER_1
 62
     7
 10
96.579556484375
 20
48.7972591875
 30
0.0
  0
VERTEX
  5
10202
  8
LAYER_1
 62
     7
 10
94.15493097822629
 20
47.90660872106482
 30
0.0
  0
VERTEX
  5
10203
  8
LAYER_1
 62
     7
 10
91.66702997685186
 20
47.17138710185186
 30
0.0
  0
VERTEX
  5
10204
  8
LAYER_1
 62
     7
 10
89.1226357792969
 20
46.597437625
 30
0.0
  0
VERTEX
  5
10205
  8
LAYER_1
 62
     7
 10
86.52853068460651
 20
46.19060358564816
 30
0.0
  0
VERTEX
  5
10206
  8
LAYER_1
 62
     7
 10
83.89149699182583
 20
45.95672827893519
 30
0.0
  0
VERTEX
  5
10207
  8
LAYER_1
 62
     7
 10
81.218317
 20
45.901655
 30
0.0
  0
SEQEND
  5
1040D
  8
LAYER_1
 62
     7
  0
POLYLINE
  5
112
  8
LAYER_1
 62
     7
 66
     1
 10
0.0
 20
0.0
 30
0.0
  0
VERTEX
  5
10208
  8
LAYER_1
 62
     7
 10
81.218317
 20
45.901655
 30
0.0
  0
VERTEX
  5
10209
  8
LAYER_1
 62
     7
 10
78.37647472808159
 20
46.04049823466435
 30
0.0
  0
VERTEX
  5
1020A
  8
LAYER_1
 62
     7
 10
75.58786880381945
 20
46.37491856481482
 30
0.0
  0
VERTEX
  5
1020B
  8
LAYER_1
 62
     7
 10
72.85868243945313
 20
46.8977589296875
 30
0.0
  0
VERTEX
  5
1020C
  8
LAYER_1
 62
     7
 10
70.19509884722223
 20
47.60186226851852
 30
0.0
  0
VERTEX
  5
1020D
  8
LAYER_1
 62
     7
 10
67.60330123936632
 20
48.48007152054398
 30
0.0
  0
VERTEX
  5
1020E
  8
LAYER_1
 62
     7
 10
65.089472828125
 20
49.525229625
 30
0.0
  0
VERTEX
  5
1020F
  8
LAYER_1
 62
     7
 10
62.65979682573784
 20
50.73017952112269
 30
0.0
  0
VERTEX
  5
10210
  8
LAYER_1
 62
     7
 10
60.32045644444445
 20
52.08776414814815
 30
0.0
  0
VERTEX
  5
10211
  8
LAYER_1
 62
     7
 10
58.07763489648437
 20
53.5908264453125
 30
0.0
  0
VERTEX
  5
10212
  8
LAYER_1
 62
     7
 10
55.93751539409722
 20
55.23220935185186
 30
0.0
  0
VERTEX
  5
10213
  8
LAYER_1
 62
     7
 10
53.90628114952257
 20
57.00475580700232
 30
0.0
  0
VERTEX
  5
10214
  8
LAYER_1
 62
     7
 10
51.99011537499999
 20
58.90130875
 30
0.0
  0
VERTEX
  5
10215
  8
LAYER_1
 62
     7
 10
50.1952012827691
 20
60.91471112008102
 30
0.0
  0
VERTEX
  5
10216
  8
LAYER_1
 62
     7
 10
48.52772208506944
 20
63.03780585648148
 30
0.0
  0
VERTEX
  5
10217
  8
LAYER_1
 62
     7
 10
46.99386099414063
 20
65.26343589843749
 30
0.0
  0
VERTEX
  5
10218
  8
LAYER_1
 62
     7
 10
45.59980122222223
 20
67.58444418518518
 30
0.0
  0
VERTEX
  5
10219
  8
LAYER_1
 62
     7
 10
44.35172598155382
 20
69.99367365596063
 30
0.0
  0
VERTEX
  5
1021A
  8
LAYER_1
 62
     7
 10
43.25581848437501
 20
72.48396724999998
 30
0.0
  0
VERTEX
  5
1021B
  8
LAYER_1
 62
     7
 10
42.31826194292535
 20
75.04816790653933
 30
0.0
  0
VERTEX
  5
1021C
  8
LAYER_1
 62
     7
 10
41.54523956944445
 20
77.67911856481479
 30
0.0
  0
VERTEX
  5
1021D
  8
LAYER_1
 62
     7
 10
40.94293457617188
 20
80.36966216406248
 30
0.0
  0
VERTEX
  5
1021E
  8
LAYER_1
 62
     7
 10
40.51753017534723
 20
83.1126416435185
 30
0.0
  0
VERTEX
  5
1021F
  8
LAYER_1
 62
     7
 10
40.27520957921007
 20
85.90089994241895
 30
0.0
  0
VERTEX
  5
10220
  8
LAYER_1
 62
     7
 10
40.222156
 20
88.72728
 30
0.0
  0
SEQEND
  5
1040E
  8
LAYER_1
 62
     7
  0
POLYLINE
  5
113
  8
LAYER_1
 62
     7
 66
     1
 10
0.0
 20
0.0
 30
0.0
  0
VERTEX
  5
10221
  8
LAYER_1
 62
     7
 10
40.222156
 20
88.72728
 30
0.0
  0
VERTEX
  5
10222
  8
LAYER_1
 62
     7
 10
40.37393100028935
 20
91.72179860554108
 30
0.0
  0
VERTEX
  5
10223
  8
LAYER_1
 62
     7
 10
40.73150639814815
 20
94.66009530266203
 30
0.0
  0
VERTEX
  5
10224
  8
LAYER_1
 62
     7
 10
41.2873501640625
 20
97.53564678710937
 30
0.0
  0
VERTEX
  5
10225
  8
LAYER_1
 62
     7
 10
42.03393026851852
 20
100.3419297546296
 30
0.0
  0
VERTEX
  5
10226
  8
LAYER_1
 62
     7
 10
42.96371468200231
 20
103.0724209009693
 30
0.0
  0
VERTEX
  5
10227
  8
LAYER_1
 62
     7
 10
44.069171375
 20
105.720596921875
 30
0.0
  0
VERTEX
  5
10228
  8
LAYER_1
 62
     7
 10
45.34276831799768
 20
108.2799345130932
 30
0.0
  0
VERTEX
  5
10229
  8
LAYER_1
 62
     7
 10
46.77697348148148
 20
110.7439103703704
 30
0.0
  0
VERTEX
  5
1022A
  8
LAYER_1
 62
     7
 10
48.3642548359375
 20
113.1060011894531
 30
0.0
  0
VERTEX
  5
1022B
  8
LAYER_1
 62
     7
 10
50.09708035185186
 20
115.359683666088
 30
0.0
  0
VERTEX
  5
1022C
  8
LAYER_1
 62
     7
 10
51.96791799971065
 20
117.4984344960214
 30
0.0
  0
VERTEX
  5
1022D
  8
LAYER_1
 62
     7
 10
53.96923575
 20
119.515730375
 30
0.0
  0
VERTEX
  5
1022E
  8
LAYER_1
 62
     7
 10
56.09350157320601
 20
121.4050479987703
 30
0.0
  0
VERTEX
  5
1022F
  8
LAYER_1
 62
     7
 10
58.33318343981481
 20
123.1598640630787
 30
0.0
  0
VERTEX
  5
10230
  8
LAYER_1
 62
     7
 10
60.68074932031249
 20
124.7736552636719
 30
0.0
  0
VERTEX
  5
10231
  8
LAYER_1
 62
     7
 10
63.12866718518517
 20
126.2398982962963
 30
0.0
  0
VERTEX
  5
10232
  8
LAYER_1
 62
     7
 10
65.66940500491897
 20
127.5520698566985
 30
0.0
  0
VERTEX
  5
10233
  8
LAYER_1
 62
     7
 10
68.29543074999998
 20
128.703646640625
 30
0.0
  0
VERTEX
  5
10234
  8
LAYER_1
 62
     7
 10
70.99921239091434
 20
129.6881053438223
 30
0.0
  0
VERTEX
  5
10235
  8
LAYER_1
 62
     7
 10
73.77321789814813
 20
130.498922662037
 30
0.0
  0
VERTEX
  5
10236
  8
LAYER_1
 62
     7
 10
76.60991524218748
 20
131.1295752910156
 30
0.0
  0
VERTEX
  5
10237
  8
LAYER_1
 62
     7
 10
79.50177239351851
 20
131.5735399265047
 30
0.0
  0
VERTEX
  5
10238
  8
LAYER_1
 62
     7
 10
82.4412573226273
 20
131.8242932642506
 30
0.0
  0
VERTEX
  5
10239
  8
LAYER_1
 62
     7
 10
85.420838
 20
131.875312
 30
0.0
  0
SEQEND
  5
1040F
  8
LAYER_1
 62
     7
  0
POLYLINE
  5
114
  8
LAYER_1
 62
     7
 66
     1
 10
0.0
 20
0.0
 30
0.0
  0
VERTEX
  5
1023A
  8
LAYER_1
 62
     7
 10
85.420838
 20
131.875312
 30
0.0
  0
VERTEX
  5
1023B
  8
LAYER_1
 62
     7
 10
88.56803293930844
 20
131.7106203628472
 30
0.0
  0
VERTEX
  5
1023C
  8
LAYER_1
 62
     7
 10
91.65602155613426
 20
131.3299024027778
 30
0.0
  0
VERTEX
  5
1023D
  8
LAYER_1
 62
     7
 10
94.67794029882813
 20
130.741065296875
 30
0.0
  0
VERTEX
  5
1023E
  8
LAYER_1
 62
     7
 10
97.62692561574076
 20
129.9520162222222
 30
0.0
  0
VERTEX
  5
1023F
  8
LAYER_1
 62
     7
 10
100.4961139552228
 20
128.9706623559028
 30
0.0
  0
VERTEX
  5
10240
  8
LAYER_1
 62
     7
 10
103.278641765625
 20
127.804910875
 30
0.0
  0
VERTEX
  5
10241
  8
LAYER_1
 62
     7
 10
105.967645495298
 20
126.4626689565972
 30
0.0
  0
VERTEX
  5
10242
  8
LAYER_1
 62
     7
 10
108.5562615925926
 20
124.9518437777778
 30
0.0
  0
VERTEX
  5
10243
  8
LAYER_1
 62
     7
 10
111.0376265058594
 20
123.280342515625
 30
0.0
  0
VERTEX
  5
10244
  8
LAYER_1
 62
     7
 10
113.4048766834491
 20
121.4560723472222
 30
0.0
  0
VERTEX
  5
10245
  8
LAYER_1
 62
     7
 10
115.6511485737124
 20
119.4869404496528
 30
0.0
  0
VERTEX
  5
10246
  8
LAYER_1
 62
     7
 10
117.769578625
 20
117.380854
 30
0.0
  0
VERTEX
  5
10247
  8
LAYER_1
 62
     7
 10
119.7533032856626
 20
115.1457201753472
 30
0.0
  0
VERTEX
  5
10248
  8
LAYER_1
 62
     7
 10
121.5954590040509
 20
112.7894461527778
 30
0.0
  0
VERTEX
  5
10249
  8
LAYER_1
 62
     7
 10
123.2891822285156
 20
110.319939109375
 30
0.0
  0
VERTEX
  5
1024A
  8
LAYER_1
 62
     7
 10
124.8276094074074
 20
107.7451062222222
 30
0.0
  0
VERTEX
  5
1024B
  8
LAYER_1
 62
     7
 10
126.203876989077
 20
105.0728546684028
 30
0.0
  0
VERTEX
  5
1024C
  8
LAYER_1
 62
     7
 10
127.411121421875
 20
102.311091625
 30
0.0
  0
VERTEX
  5
1024D
  8
LAYER_1
 62
     7
 10
128.4424791541522
 20
99.46772426909725
 30
0.0
  0
VERTEX
  5
1024E
  8
LAYER_1
 62
     7
 10
129.2910866342592
 20
96.5506597777778
 30
0.0
  0
VERTEX
  5
1024F
  8
LAYER_1
 62
     7
 10
129.9500803105469
 20
93.56780532812502
 30
0.0
  0
VERTEX
  5
10250
  8
LAYER_1
 62
     7
 10
130.4125966313657
 20
90.52706809722226
 30
0.0
  0
VERTEX
  5
10251
  8
LAYER_1
 62
     7
 10
130.6717720450665
 20
87.4363552621528
 30
0.0
  0
VERTEX
  5
10252
  8
LAYER_1
 62
     7
 10
130.720743
 20
84.303574
 30
0.0
  0
SEQEND
  5
10410
  8
LAYER_1
 62
     7
  0
POLYLINE
  5
115
  8
LAYER_1
 62
     7
 66
     1
 10
0.0
 20
0.0
 30
0.0
  0
VERTEX
  5
10253
  8
LAYER_1
 62
     7
 10
130.720743
 20
84.303574
 30
0.0
  0
VERTEX
  5
10254
  8
LAYER_1
 62
     7
 10
130.5431474288194
 20
81.00370202322048
 30
0.0
  0
VERTEX
  5
10255
  8
LAYER_1
 62
     7
 10
130.1392973680555
 20
77.76601995659722
 30
0.0
  0
VERTEX
  5
10256
  8
LAYER_1
 62
     7
 10
129.517475296875
 20
74.59773172070312
 30
0.0
  0
VERTEX
  5
10257
  8
LAYER_1
 62
     7
 10
128.6859636944445
 20
71.50604123611113
 30
0.0
  0
VERTEX
  5
10258
  8
LAYER_1
 62
     7
 10
127.6530450399305
 20
68.4981524233941
 30
0.0
  0
VERTEX
  5
10259
  8
LAYER_1
 62
     7
 10
126.4270018125
 20
65.581269203125
 30
0.0
  0
VERTEX
  5
1025A
  8
LAYER_1
 62
     7
 10
125.0161164913195
 20
62.76259549587674
 30
0.0
  0
VERTEX
  5
1025B
  8
LAYER_1
 62
     7
 10
123.4286715555556
 20
60.04933522222223
 30
0.0
  0
VERTEX
  5
1025C
  8
LAYER_1
 62
     7
 10
121.672949484375
 20
57.44869230273437
 30
0.0
  0
VERTEX
  5
1025D
  8
LAYER_1
 62
     7
 10
119.7572327569444
 20
54.96787065798611
 30
0.0
  0
VERTEX
  5
1025E
  8
LAYER_1
 62
     7
 10
117.6898038524306
 20
52.61407420855035
 30
0.0
  0
VERTEX
  5
1025F
  8
LAYER_1
 62
     7
 10
115.47894525
 20
50.39450687499999
 30
0.0
  0
VERTEX
  5
10260
  8
LAYER_1
 62
     7
 10
113.1329394288195
 20
48.31637257790799
 30
0.0
  0
VERTEX
  5
10261
  8
LAYER_1
 62
     7
 10
110.6600688680556
 20
46.38687523784722
 30
0.0
  0
VERTEX
  5
10262
  8
LAYER_1
 62
     7
 10
108.068616046875
 20
44.61321877539064
 30
0.0
  0
VERTEX
  5
10263
  8
LAYER_1
 62
     7
 10
105.3668634444444
 20
43.00260711111112
 30
0.0
  0
VERTEX
  5
10264
  8
LAYER_1
 62
     7
 10
102.5630935399306
 20
41.5622441655816
 30
0.0
  0
VERTEX
  5
10265
  8
LAYER_1
 62
     7
 10
99.6655888125
 20
40.299333859375
 30
0.0
  0
VERTEX
  5
10266
  8
LAYER_1
 62
     7
 10
96.68263174131945
 20
39.22108011306424
 30
0.0
  0
VERTEX
  5
10267
  8
LAYER_1
 62
     7
 10
93.62250480555558
 20
38.33468684722222
 30
0.0
  0
VERTEX
  5
10268
  8
LAYER_1
 62
     7
 10
90.49349048437503
 20
37.64735798242188
 30
0.0
  0
VERTEX
  5
10269
  8
LAYER_1
 62
     7
 10
87.30387125694448
 20
37.16629743923612
 30
0.0
  0
VERTEX
  5
1026A
  8
LAYER_1
 62
     7
 10
84.06192960243058
 20
36.89870913823785
 30
0.0
  0
VERTEX
  5
1026B
  8
LAYER_1
 62
     7
 10
80.775948
 20
36.851797
 30
0.0
  0
SEQEND
  5
10411
  8
LAYER_1
 62
     7
  0
POLYLINE
  5
116
  8
LAYER_1
 62
     7
 66
     1
 10
0.0
 20
0.0
 30
0.0
  0
VERTEX
  5
1026C
  8
LAYER_1
 62
     7
 10
80.775948
 20
36.851797
 30
0.0
  0
VERTEX
  5
1026D
  8
LAYER_1
 62
     7
 10
77.3233990005787
 20
37.04228514004629
 30
0.0
  0
VERTEX
  5
1026E
  8
LAYER_1
 62
     7
 10
73.9360226087963
 20
37.46925787037037
 30
0.0
  0
VERTEX
  5
1026F
  8
LAYER_1
 62
     7
 10
70.621363234375
 20
38.12405728125
 30
0.0
  0
VERTEX
  5
10270
  8
LAYER_1
 62
     7
 10
67.38696528703706
 20
38.99802546296296
 30
0.0
  0
VERTEX
  5
10271
  8
LAYER_1
 62
     7
 10
64.24037317650463
 20
40.08250450578704
 30
0.0
  0
VERTEX
  5
10272
  8
LAYER_1
 62
     7
 10
61.1891313125
 20
41.36883649999999
 30
0.0
  0
VERTEX
  5
10273
  8
LAYER_1
 62
     7
 10
58.24078410474537
 20
42.84836353587963
 30
0.0
  0
VERTEX
  5
10274
  8
LAYER_1
 62
     7
 10
55.40287596296296
 20
44.5124277037037
 30
0.0
  0
VERTEX
  5
10275
  8
LAYER_1
 62
     7
 10
52.682951296875
 20
46.35237109374999
 30
0.0
  0
VERTEX
  5
10276
  8
LAYER_1
 62
     7
 10
50.08855451620371
 20
48.3595357962963
 30
0.0
  0
VERTEX
  5
10277
  8
LAYER_1
 62
     7
 10
47.62723003067129
 20
50.52526390162038
 30
0.0
  0
VERTEX
  5
10278
  8
LAYER_1
 62
     7
 10
45.30652225
 20
52.8408975
 30
0.0
  0
VERTEX
  5
10279
  8
LAYER_1
 62
     7
 10
43.13397558391203
 20
55.29777868171296
 30
0.0
  0
VERTEX
  5
1027A
  8
LAYER_1
 62
     7
 10
41.11713444212964
 20
57.88724953703703
 30
0.0
  0
VERTEX
  5
1027B
  8
LAYER_1
 62
     7
 10
39.26354323437501
 20
60.60065215625
 30
0.0
  0
VERTEX
  5
1027C
  8
LAYER_1
 62
     7
 10
37.58074637037038
 20
63.42932862962962
 30
0.0
  0
VERTEX
  5
1027D
  8
LAYER_1
 62
     7
 10
36.07628825983797
 20
66.3646210474537
 30
0.0
  0
VERTEX
  5
1027E
  8
LAYER_1
 62
     7
 10
34.75771331250001
 20
69.39787149999998
 30
0.0
  0
VERTEX
  5
1027F
  8
LAYER_1
 62
     7
 10
33.63256593807871
 20
72.52042207754629
 30
0.0
  0
VERTEX
  5
10280
  8
LAYER_1
 62
     7
 10
32.7083905462963
 20
75.72361487037034
 30
0.0
  0
VERTEX
  5
10281
  8
LAYER_1
 62
     7
 10
31.992731546875
 20
78.99879196874997
 30
0.0
  0
VERTEX
  5
10282
  8
LAYER_1
 62
     7
 10
31.49313334953704
 20
82.33729546296294
 30
0.0
  0
VERTEX
  5
10283
  8
LAYER_1
 62
     7
 10
31.21714036400463
 20
85.73046744328701
 30
0.0
  0
VERTEX
  5
10284
  8
LAYER_1
 62
     7
 10
31.172297
 20
89.16965
 30
0.0
  0
SEQEND
  5
10412
  8
LAYER_1
 62
     7
  0
POLYLINE
  5
117
  8
LAYER_1
 62
     7
 66
     1
 10
0.0
 20
0.0
 30
0.0
  0
VERTEX
  5
10285
  8
LAYER_1
 62
     7
 10
31.172297
 20
89.16965
 30
0.0
  0
VERTEX
  5
10286
  8
LAYER_1
 62
     7
 10
31.37566832523148
 20
92.7748762614294
 30
0.0
  0
VERTEX
  5
10287
  8
LAYER_1
 62
     7
 10
31.82575599768518
 20
96.31194788310187
 30
0.0
  0
VERTEX
  5
10288
  8
LAYER_1
 62
     7
 10
32.5135265625
 20
99.77297987109375
 30
0.0
  0
VERTEX
  5
10289
  8
LAYER_1
 62
     7
 10
33.42994656481482
 20
103.1500872314815
 30
0.0
  0
VERTEX
  5
1028A
  8
LAYER_1
 62
     7
 10
34.56598254976851
 20
106.4353849703414
 30
0.0
  0
VERTEX
  5
1028B
  8
LAYER_1
 62
     7
 10
35.91260106249999
 20
109.62098809375
 30
0.0
  0
VERTEX
  5
1028C
  8
LAYER_1
 62
     7
 10
37.46076864814815
 20
112.6990116077836
 30
0.0
  0
VERTEX
  5
1028D
  8
LAYER_1
 62
     7
 10
39.20145185185185
 20
115.6615705185185
 30
0.0
  0
VERTEX
  5
1028E
  8
LAYER_1
 62
     7
 10
41.12561721875
 20
118.5007798320313
 30
0.0
  0
VERTEX
  5
1028F
  8
LAYER_1
 62
     7
 10
43.22423129398148
 20
121.2087545543982
 30
0.0
  0
VERTEX
  5
10290
  8
LAYER_1
 62
     7
 10
45.48826062268519
 20
123.7776096916956
 30
0.0
  0
VERTEX
  5
10291
  8
LAYER_1
 62
     7
 10
47.90867175
 20
126.19946025
 30
0.0
  0
VERTEX
  5
10292
  8
LAYER_1
 62
     7
 10
50.47643122106481
 20
128.4664212353877
 30
0.0
  0
VERTEX
  5
10293
  8
LAYER_1
 62
     7
 10
53.18250558101852
 20
130.5706076539352
 30
0.0
  0
VERTEX
  5
10294
  8
LAYER_1
 62
     7
 10
56.017861375
 20
132.5041345117187
 30
0.0
  0
VERTEX
  5
10295
  8
LAYER_1
 62
     7
 10
58.97346514814814
 20
134.2591168148148
 30
0.0
  0
VERTEX
  5
10296
  8
LAYER_1
 62
     7
 10
62.04028344560184
 20
135.8276695692998
 30
0.0
  0
VERTEX
  5
10297
  8
LAYER_1
 62
     7
 10
65.20928281249998
 20
137.20190778125
 30
0.0
  0
VERTEX
  5
10298
  8
LAYER_1
 62
     7
 10
68.47142979398146
 20
138.3739464567419
 30
0.0
  0
VERTEX
  5
10299
  8
LAYER_1
 62
     7
 10
71.81769093518515
 20
139.3359006018518
 30
0.0
  0
VERTEX
  5
1029A
  8
LAYER_1
 62
     7
 10
75.23903278124997
 20
140.0798852226563
 30
0.0
  0
VERTEX
  5
1029B
  8
LAYER_1
 62
     7
 10
78.72642187731479
 20
140.5980153252315
 30
0.0
  0
VERTEX
  5
1029C
  8
LAYER_1
 62
     7
 10
82.27082476851848
 20
140.8824059156539
 30
0.0
  0
VERTEX
  5
1029D
  8
LAYER_1
 62
     7
 10
85.863208
 20
140.925172
 30
0.0
  0
SEQEND
  5
10413
  8
LAYER_1
 62
     7
  0
POLYLINE
  5
118
  8
LAYER_1
 62
     7
 66
     1
 10
0.0
 20
0.0
 30
0.0
  0
VERTEX
  5
1029E
  8
LAYER_1
 62
     7
 10
85.863208
 20
140.925172
 30
0.0
  0
VERTEX
  5
1029F
  8
LAYER_1
 62
     7
 10
89.62111184801795
 20
140.7089264341724
 30
0.0
  0
VERTEX
  5
102A0
  8
LAYER_1
 62
     7
 10
93.30787961747684
 20
140.2357312233796
 30
0.0
  0
VERTEX
  5
102A1
  8
LAYER_1
 62
     7
 10
96.91528564648436
 20
139.5149954726562
 30
0.0
  0
VERTEX
  5
102A2
  8
LAYER_1
 62
     7
 10
100.4351042731482
 20
138.5561282870371
 30
0.0
  0
VERTEX
  5
102A3
  8
LAYER_1
 62
     7
 10
103.8591098355758
 20
137.3685387715567
 30
0.0
  0
VERTEX
  5
102A4
  8
LAYER_1
 62
     7
 10
107.179076671875
 20
135.96163603125
 30
0.0
  0
VERTEX
  5
102A5
  8
LAYER_1
 62
     7
 10
110.3867791201534
 20
134.3448291711516
 30
0.0
  0
VERTEX
  5
102A6
  8
LAYER_1
 62
     7
 10
113.4739915185185
 20
132.5275272962963
 30
0.0
  0
VERTEX
  5
102A7
  8
LAYER_1
 62
     7
 10
116.4324882050781
 20
130.5191395117187
 30
0.0
  0
VERTEX
  5
102A8
  8
LAYER_1
 62
     7
 10
119.2540435179398
 20
128.3290749224537
 30
0.0
  0
VERTEX
  5
102A9
  8
LAYER_1
 62
     7
 10
121.9304317952112
 20
125.9667426335359
 30
0.0
  0
VERTEX
  5
102AA
  8
LAYER_1
 62
     7
 10
124.453427375
 20
123.44155175
 30
0.0
  0
VERTEX
  5
102AB
  8
LAYER_1
 62
     7
 10
126.8148045954138
 20
120.7629113768808
 30
0.0
  0
VERTEX
  5
102AC
  8
LAYER_1
 62
     7
 10
129.0063377945602
 20
117.940230619213
 30
0.0
  0
VERTEX
  5
102AD
  8
LAYER_1
 62
     7
 10
131.0198013105469
 20
114.9829185820313
 30
0.0
  0
VERTEX
  5
102AE
  8
LAYER_1
 62
     7
 10
132.8469694814815
 20
111.9003843703704
 30
0.0
  0
VERTEX
  5
102AF
  8
LAYER_1
 62
     7
 10
134.4796166454716
 20
108.702037089265
 30
0.0
  0
VERTEX
  5
102B0
  8
LAYER_1
 62
     7
 10
135.909517140625
 20
105.39728584375
 30
0.0
  0
VERTEX
  5
102B1
  8
LAYER_1
 62
     7
 10
137.1284453050492
 20
101.99553973886
 30
0.0
  0
VERTEX
  5
102B2
  8
LAYER_1
 62
     7
 10
138.1281754768519
 20
98.50620787962966
 30
0.0
  0
VERTEX
  5
102B3
  8
LAYER_1
 62
     7
 10
138.9004819941406
 20
94.93869937109378
 30
0.0
  0
VERTEX
  5
102B4
  8
LAYER_1
 62
     7
 10
139.4371391950231
 20
91.30242331828707
 30
0.0
  0
VERTEX
  5
102B5
  8
LAYER_1
 62
     7
 10
139.729921417607
 20
87.60678882624424
 30
0.0
  0
VERTEX
  5
102B6
  8
LAYER_1
 62
     7
 10
139.770603
 20
83.861205
 30
0.0
  0
SEQEND
  5
10414
  8
LAYER_1
 62
     7
  0
POLYLINE
  5
119
  8
LAYER_1
 62
     7
 66
     1
 10
0.0
 20
0.0
 30
0.0
  0
VERTEX
  5
102B7
  8
LAYER_1
 62
     7
 10
139.770603
 20
83.861205
 30
0.0
  0
VERTEX
  5
102B8
  8
LAYER_1
 62
     7
 10
139.5414901761429
 20
79.95062349052372
 30
0.0
  0
VERTEX
  5
102B9
  8
LAYER_1
 62
     7
 10
139.0451931799768
 20
76.11415890335647
 30
0.0
  0
VERTEX
  5
102BA
  8
LAYER_1
 62
     7
 10
138.2914968496094
 20
72.36037765039062
 30
0.0
  0
VERTEX
  5
102BB
  8
LAYER_1
 62
     7
 10
137.2901860231482
 20
68.69784614351853
 30
0.0
  0
VERTEX
  5
102BC
  8
LAYER_1
 62
     7
 10
136.0510455387008
 20
65.13513079463252
 30
0.0
  0
VERTEX
  5
102BD
  8
LAYER_1
 62
     7
 10
134.583860234375
 20
61.680798015625
 30
0.0
  0
VERTEX
  5
102BE
  8
LAYER_1
 62
     7
 10
132.8984149482784
 20
58.34341421838831
 30
0.0
  0
VERTEX
  5
102BF
  8
LAYER_1
 62
     7
 10
131.0044945185185
 20
55.13154581481482
 30
0.0
  0
VERTEX
  5
102C0
  8
LAYER_1
 62
     7
 10
128.9118837832031
 20
52.05375921679688
 30
0.0
  0
VERTEX
  5
102C1
  8
LAYER_1
 62
     7
 10
126.6303675804398
 20
49.11862083622685
 30
0.0
  0
VERTEX
  5
102C2
  8
LAYER_1
 62
     7
 10
124.1697307483362
 20
46.3346970849971
 30
0.0
  0
VERTEX
  5
102C3
  8
LAYER_1
 62
     7
 10
121.539758125
 20
43.710554375
 30
0.0
  0
VERTEX
  5
102C4
  8
LAYER_1
 62
     7
 10
118.7502345485388
 20
41.2547591181279
 30
0.0
  0
VERTEX
  5
102C5
  8
LAYER_1
 62
     7
 10
115.8109448570602
 20
38.97587772627315
 30
0.0
  0
VERTEX
  5
102C6
  8
LAYER_1
 62
     7
 10
112.7316738886719
 20
36.88247661132813
 30
0.0
  0
VERTEX
  5
102C7
  8
LAYER_1
 62
     7
 10
109.5222064814815
 20
34.9831221851852
 30
0.0
  0
VERTEX
  5
102C8
  8
LAYER_1
 62
     7
 10
106.1923274735967
 20
33.2863808597367
 30
0.0
  0
VERTEX
  5
102C9
  8
LAYER_1
 62
     7
 10
102.751821703125
 20
31.80081904687501
 30
0.0
  0
VERTEX
  5
102CA
  8
LAYER_1
 62
     7
 10
99.21047400817422
 20
30.53500315849248
 30
0.0
  0
VERTEX
  5
102CB
  8
LAYER_1
 62
     7
 10
95.57806922685188
 20
29.49749960648149
 30
0.0
  0
VERTEX
  5
102CC
  8
LAYER_1
 62
     7
 10
91.86439219726566
 20
28.69687480273438
 30
0.0
  0
VERTEX
  5
102CD
  8
LAYER_1
 62
     7
 10
88.07922775752319
 20
28.14169515914352
 30
0.0
  0
VERTEX
  5
102CE
  8
LAYER_1
 62
     7
 10
84.2323607457321
 20
27.84052708760127
 30
0.0
  0
VERTEX
  5
102CF
  8
LAYER_1
 62
     7
 10
80.333576
 20
27.801937
 30
0.0
  0
SEQEND
  5
10415
  8
LAYER_1
 62
     7
  0
POLYLINE
  5
11A
  8
LAYER_1
 62
     7
 66
     1
 10
0.0
 20
0.0
 30
0.0
  0
VERTEX
  5
102D0
  8
LAYER_1
 62
     7
 10
80.333576
 20
27.801937
 30
0.0
  0
VERTEX
  5
102D1
  8
LAYER_1
 62
     7
 10
76.27031670449941
 20
28.04391008369502
 30
0.0
  0
VERTEX
  5
102D2
  8
LAYER_1
 62
     7
 10
72.2841547193287
 20
28.56330306539352
 30
0.0
  0
VERTEX
  5
102D3
  8
LAYER_1
 62
     7
 10
68.38399727148436
 20
29.34995529101563
 30
0.0
  0
VERTEX
  5
102D4
  8
LAYER_1
 62
     7
 10
64.57875158796297
 20
30.39370610648148
 30
0.0
  0
VERTEX
  5
102D5
  8
LAYER_1
 62
     7
 10
60.87732489576099
 20
31.68439485771123
 30
0.0
  0
VERTEX
  5
102D6
  8
LAYER_1
 62
     7
 10
57.28862442187499
 20
33.211860890625
 30
0.0
  0
VERTEX
  5
102D7
  8
LAYER_1
 62
     7
 10
53.8215573933015
 20
34.96594355114294
 30
0.0
  0
VERTEX
  5
102D8
  8
LAYER_1
 62
     7
 10
50.48503103703704
 20
36.93648218518519
 30
0.0
  0
VERTEX
  5
102D9
  8
LAYER_1
 62
     7
 10
47.28795258007813
 20
39.11331613867188
 30
0.0
  0
VERTEX
  5
102DA
  8
LAYER_1
 62
     7
 10
44.23922924942129
 20
41.48628475752315
 30
0.0
  0
VERTEX
  5
102DB
  8
LAYER_1
 62
     7
 10
41.34776827206307
 20
44.04522738765914
 30
0.0
  0
VERTEX
  5
102DC
  8
LAYER_1
 62
     7
 10
38.622476875
 20
46.779983375
 30
0.0
  0
VERTEX
  5
102DD
  8
LAYER_1
 62
     7
 10
36.07226228522859
 20
49.68039206546585
 30
0.0
  0
VERTEX
  5
102DE
  8
LAYER_1
 62
     7
 10
33.70603172974538
 20
52.73629280497685
 30
0.0
  0
VERTEX
  5
102DF
  8
LAYER_1
 62
     7
 10
31.53269243554688
 20
55.93752493945312
 30
0.0
  0
VERTEX
  5
102E0
  8
LAYER_1
 62
     7
 10
29.56115162962964
 20
59.2739278148148
 30
0.0
  0
VERTEX
  5
102E1
  8
LAYER_1
 62
     7
 10
27.80031653899017
 20
62.73534077698204
 30
0.0
  0
VERTEX
  5
102E2
  8
LAYER_1
 62
     7
 10
26.25909439062501
 20
66.31160317187498
 30
0.0
  0
VERTEX
  5
102E3
  8
LAYER_1
 62
     7
 10
24.94639241153068
 20
69.99255434541375
 30
0.0
  0
VERTEX
  5
102E4
  8
LAYER_1
 62
     7
 10
23.87111782870371
 20
73.76803364351849
 30
0.0
  0
VERTEX
  5
102E5
  8
LAYER_1
 62
     7
 10
23.04217786914063
 20
77.62788041210935
 30
0.0
  0
VERTEX
  5
102E6
  8
LAYER_1
 62
     7
 10
22.46847975983797
 20
81.56193399710645
 30
0.0
  0
VERTEX
  5
102E7
  8
LAYER_1
 62
     7
 10
22.15893072779225
 20
85.56003374442994
 30
0.0
  0
VERTEX
  5
102E8
  8
LAYER_1
 62
     7
 10
22.122438
 20
89.612019
 30
0.0
  0
SEQEND
  5
10416
  8
LAYER_1
 62
     7
  0
POLYLINE
  5
11B
  8
LAYER_1
 62
     7
 66
     1
 10
0.0
 20
0.0
 30
0.0
  0
VERTEX
  5
102E9
  8
LAYER_1
 62
     7
 10
22.122438
 20
89.612019
 30
0.0
  0
VERTEX
  5
102EA
  8
LAYER_1
 62
     7
 10
22.37726538418692
 20
93.82795656090856
 30
0.0
  0
VERTEX
  5
102EB
  8
LAYER_1
 62
     7
 10
22.91974942766204
 20
97.96381684143519
 30
0.0
  0
VERTEX
  5
102EC
  8
LAYER_1
 62
     7
 10
23.73935359179687
 20
102.0103517382813
 30
0.0
  0
VERTEX
  5
102ED
  8
LAYER_1
 62
     7
 10
24.82554133796297
 20
105.9583131481482
 30
0.0
  0
VERTEX
  5
102EE
  8
LAYER_1
 62
     7
 10
26.16777612753183
 20
109.7984529677373
 30
0.0
  0
VERTEX
  5
102EF
  8
LAYER_1
 62
     7
 10
27.755521421875
 20
113.52152309375
 30
0.0
  0
VERTEX
  5
102F0
  8
LAYER_1
 62
     7
 10
29.578240682364
 20
117.1182754228877
 30
0.0
  0
VERTEX
  5
102F1
  8
LAYER_1
 62
     7
 10
31.62539737037037
 20
120.5794618518518
 30
0.0
  0
VERTEX
  5
102F2
  8
LAYER_1
 62
     7
 10
33.88645494726563
 20
123.8958342773438
 30
0.0
  0
VERTEX
  5
102F3
  8
LAYER_1
 62
     7
 10
36.3508768744213
 20
127.0581445960648
 30
0.0
  0
VERTEX
  5
102F4
  8
LAYER_1
 62
     7
 10
39.00812661320892
 20
130.0571447047164
 30
0.0
  0
VERTEX
  5
102F5
  8
LAYER_1
 62
     7
 10
41.847667625
 20
132.8835865
 30
0.0
  0
VERTEX
  5
102F6
  8
LAYER_1
 62
     7
 10
44.85896337116608
 20
135.5282218786169
 30
0.0
  0
VERTEX
  5
102F7
  8
LAYER_1
 62
     7
 10
48.0314773130787
 20
137.9818027372685
 30
0.0
  0
VERTEX
  5
102F8
  8
LAYER_1
 62
     7
 10
51.35467291210937
 20
140.2350809726562
 30
0.0
  0
VERTEX
  5
102F9
  8
LAYER_1
 62
     7
 10
54.81801362962962
 20
142.2788084814815
 30
0.0
  0
VERTEX
  5
102FA
  8
LAYER_1
 62
     7
 10
58.41096292701098
 20
144.1037371604456
 30
0.0
  0
VERTEX
  5
102FB
  8
LAYER_1
 62
     7
 10
62.12298426562498
 20
145.70061890625
 30
0.0
  0
VERTEX
  5
102FC
  8
LAYER_1
 62
     7
 10
65.94354110684314
 20
147.0602056155961
 30
0.0
  0
VERTEX
  5
102FD
  8
LAYER_1
 62
     7
 10
69.862096912037
 20
148.1732491851852
 30
0.0
  0
VERTEX
  5
102FE
  8
LAYER_1
 62
     7
 10
73.86811514257809
 20
149.0305015117187
 30
0.0
  0
VERTEX
  5
102FF
  8
LAYER_1
 62
     7
 10
77.95105925983793
 20
149.6227144918982
 30
0.0
  0
VERTEX
  5
10300
  8
LAYER_1
 62
     7
 10
82.10039272518803
 20
149.9406400224248
 30
0.0
  0
VERTEX
  5
10301
  8
LAYER_1
 62
     7
 10
86.305579
 20
149.97503
 30
0.0
  0
SEQEND
  5
10417
  8
LAYER_1
 62
     7
  0
POLYLINE
  5
11C
  8
LAYER_1
 62
     7
 66
     1
 10
0.0
 20
0.0
 30
0.0
  0
VERTEX
  5
10302
  8
LAYER_1
 62
     7
 10
86.305579
 20
149.97503
 30
0.0
  0
VERTEX
  5
10303
  8
LAYER_1
 62
     7
 10
90.67419466145832
 20
149.7073534665799
 30
0.0
  0
VERTEX
  5
10304
  8
LAYER_1
 62
     7
 10
94.95975345833332
 20
149.1417826076389
 30
0.0
  0
VERTEX
  5
10305
  8
LAYER_1
 62
     7
 10
99.152666359375
 20
148.2892299101563
 30
0.0
  0
VERTEX
  5
10306
  8
LAYER_1
 62
     7
 10
103.2433443333333
 20
147.1606078611111
 30
0.0
  0
VERTEX
  5
10307
  8
LAYER_1
 62
     7
 10
107.2221983489583
 20
145.7668289474827
 30
0.0
  0
VERTEX
  5
10308
  8
LAYER_1
 62
     7
 10
111.079639375
 20
144.11880565625
 30
0.0
  0
VERTEX
  5
10309
  8
LAYER_1
 62
     7
 10
114.8060783802083
 20
142.2274504743924
 30
0.0
  0
VERTEX
  5
1030A
  8
LAYER_1
 62
     7
 10
118.3919263333333
 20
140.1036758888889
 30
0.0
  0
VERTEX
  5
1030B
  8
LAYER_1
 62
     7
 10
121.827594203125
 20
137.7583943867187
 30
0.0
  0
VERTEX
  5
1030C
  8
LAYER_1
 62
     7
 10
125.1034929583333
 20
135.2025184548611
 30
0.0
  0
VERTEX
  5
1030D
  8
LAYER_1
 62
     7
 10
128.2100335677083
 20
132.4469605802951
 30
0.0
  0
VERTEX
  5
1030E
  8
LAYER_1
 62
     7
 10
131.137627
 20
129.50263325
 30
0.0
  0
VERTEX
  5
1030F
  8
LAYER_1
 62
     7
 10
133.8766842239583
 20
126.3804489509549
 30
0.0
  0
VERTEX
  5
10310
  8
LAYER_1
 62
     7
 10
136.4176162083333
 20
123.0913201701389
 30
0.0
  0
VERTEX
  5
10311
  8
LAYER_1
 62
     7
 10
138.750833921875
 20
119.6461593945313
 30
0.0
  0
VERTEX
  5
10312
  8
LAYER_1
 62
     7
 10
140.8667483333333
 20
116.0558791111111
 30
0.0
  0
VERTEX
  5
10313
  8
LAYER_1
 62
     7
 10
142.7557704114583
 20
112.3313918068577
 30
0.0
  0
VERTEX
  5
10314
  8
LAYER_1
 62
     7
 10
144.408311125
 20
108.48360996875
 30
0.0
  0
VERTEX
  5
10315
  8
LAYER_1
 62
     7
 10
145.8147814427083
 20
104.5234460837674
 30
0.0
  0
VERTEX
  5
10316
  8
LAYER_1
 62
     7
 10
146.9655923333333
 20
100.4618126388889
 30
0.0
  0
VERTEX
  5
10317
  8
LAYER_1
 62
     7
 10
147.851154765625
 20
96.30962212109378
 30
0.0
  0
VERTEX
  5
10318
  8
LAYER_1
 62
     7
 10
148.4618797083333
 20
92.07778701736116
 30
0.0
  0
VERTEX
  5
10319
  8
LAYER_1
 62
     7
 10
148.7881781302083
 20
87.77721981467019
 30
0.0
  0
VERTEX
  5
1031A
  8
LAYER_1
 62
     7
 10
148.820461
 20
83.418833
 30
0.0
  0
SEQEND
  5
10418
  8
LAYER_1
 62
     7
  0
POLYLINE
  5
11D
  8
LAYER_1
 62
     7
 66
     1
 10
0.0
 20
0.0
 30
0.0
  0
VERTEX
  5
1031B
  8
LAYER_1
 62
     7
 10
148.820461
 20
83.418833
 30
0.0
  0
VERTEX
  5
1031C
  8
LAYER_1
 62
     7
 10
148.5399397894242
 20
78.89753892346643
 30
0.0
  0
VERTEX
  5
1031D
  8
LAYER_1
 62
     7
 10
147.9512858153935
 20
74.46228095023147
 30
0.0
  0
VERTEX
  5
1031E
  8
LAYER_1
 62
     7
 10
147.0657875644531
 20
70.12298908984376
 30
0.0
  0
VERTEX
  5
1031F
  8
LAYER_1
 62
     7
 10
145.8947335231482
 20
65.88959335185187
 30
0.0
  0
VERTEX
  5
10320
  8
LAYER_1
 62
     7
 10
144.4494121780237
 20
61.7720237458044
 30
0.0
  0
VERTEX
  5
10321
  8
LAYER_1
 62
     7
 10
142.741112015625
 20
57.78021028125
 30
0.0
  0
VERTEX
  5
10322
  8
LAYER_1
 62
     7
 10
140.7811215224971
 20
53.92408296773727
 30
0.0
  0
VERTEX
  5
10323
  8
LAYER_1
 62
     7
 10
138.5807291851852
 20
50.21357181481482
 30
0.0
  0
VERTEX
  5
10324
  8
LAYER_1
 62
     7
 10
136.1512234902344
 20
46.65860683203125
 30
0.0
  0
VERTEX
  5
10325
  8
LAYER_1
 62
     7
 10
133.5038929241898
 20
43.26911802893518
 30
0.0
  0
VERTEX
  5
10326
  8
LAYER_1
 62
     7
 10
130.6500259735966
 20
40.05503541507523
 30
0.0
  0
VERTEX
  5
10327
  8
LAYER_1
 62
     7
 10
127.600911125
 20
37.026289
 30
0.0
  0
VERTEX
  5
10328
  8
LAYER_1
 62
     7
 10
124.367836864945
 20
34.1928087932581
 30
0.0
  0
VERTEX
  5
10329
  8
LAYER_1
 62
     7
 10
120.9620916799769
 20
31.56452480439815
 30
0.0
  0
VERTEX
  5
1032A
  8
LAYER_1
 62
     7
 10
117.3949640566406
 20
29.15136704296875
 30
0.0
  0
VERTEX
  5
1032B
  8
LAYER_1
 62
     7
 10
113.6777424814815
 20
26.96326551851853
 30
0.0
  0
VERTEX
  5
1032C
  8
LAYER_1
 62
     7
 10
109.8217154410446
 20
25.01015024059607
 30
0.0
  0
VERTEX
  5
1032D
  8
LAYER_1
 62
     7
 10
105.838171421875
 20
23.30195121875001
 30
0.0
  0
VERTEX
  5
1032E
  8
LAYER_1
 62
     7
 10
101.738398910518
 20
21.84859846252894
 30
0.0
  0
VERTEX
  5
1032F
  8
LAYER_1
 62
     7
 10
97.53368639351854
 20
20.66002198148149
 30
0.0
  0
VERTEX
  5
10330
  8
LAYER_1
 62
     7
 10
93.23532235742191
 20
19.74615178515625
 30
0.0
  0
VERTEX
  5
10331
  8
LAYER_1
 62
     7
 10
88.8545952887732
 20
19.11691788310186
 30
0.0
  0
VERTEX
  5
10332
  8
LAYER_1
 62
     7
 10
84.40279367411752
 20
18.7822502848669
 30
0.0
  0
VERTEX
  5
10333
  8
LAYER_1
 62
     7
 10
79.891206
 20
18.752079
 30
0.0
  0
SEQEND
  5
10419
  8
LAYER_1
 62
     7
  0
POLYLINE
  5
11E
  8
LAYER_1
 62
     7
 66
     1
 10
0.0
 20
0.0
 30
0.0
  0
VERTEX
  5
10334
  8
LAYER_1
 62
     7
 10
79.891206
 20
18.752079
 30
0.0
  0
VERTEX
  5
10335
  8
LAYER_1
 62
     7
 10
75.21723334367766
 20
19.04544031061921
 30
0.0
  0
VERTEX
  5
10336
  8
LAYER_1
 62
     7
 10
70.63227572858796
 20
19.65717363078704
 30
0.0
  0
VERTEX
  5
10337
  8
LAYER_1
 62
     7
 10
66.14660418554688
 20
20.57561441796875
 30
0.0
  0
VERTEX
  5
10338
  8
LAYER_1
 62
     7
 10
61.77048974537038
 20
21.78909812962963
 30
0.0
  0
VERTEX
  5
10339
  8
LAYER_1
 62
     7
 10
57.51420343887442
 20
23.28596022323495
 30
0.0
  0
VERTEX
  5
1033A
  8
LAYER_1
 62
     7
 10
53.388016296875
 20
25.05453615624999
 30
0.0
  0
VERTEX
  5
1033B
  8
LAYER_1
 62
     7
 10
49.40219935018808
 20
27.08316138614004
 30
0.0
  0
VERTEX
  5
1033C
  8
LAYER_1
 62
     7
 10
45.56702362962963
 20
29.36017137037037
 30
0.0
  0
VERTEX
  5
1033D
  8
LAYER_1
 62
     7
 10
41.89276016601563
 20
31.87390156640625
 30
0.0
  0
VERTEX
  5
1033E
  8
LAYER_1
 62
     7
 10
38.38967999016204
 20
34.61268743171296
 30
0.0
  0
VERTEX
  5
1033F
  8
LAYER_1
 62
     7
 10
35.06805413288483
 20
37.56486442375579
 30
0.0
  0
VERTEX
  5
10340
  8
LAYER_1
 62
     7
 10
31.938153625
 20
40.718768
 30
0.0
  0
VERTEX
  5
10341
  8
LAYER_1
 62
     7
 10
29.0102494973235
 20
44.06273361791087
 30
0.0
  0
VERTEX
  5
10342
  8
LAYER_1
 62
     7
 10
26.2946127806713
 20
47.58509673495369
 30
0.0
  0
VERTEX
  5
10343
  8
LAYER_1
 62
     7
 10
23.80151450585938
 20
51.27419280859374
 30
0.0
  0
VERTEX
  5
10344
  8
LAYER_1
 62
     7
 10
21.54122570370371
 20
55.11835729629628
 30
0.0
  0
VERTEX
  5
10345
  8
LAYER_1
 62
     7
 10
19.52401740502026
 20
59.1059256555266
 30
0.0
  0
VERTEX
  5
10346
  8
LAYER_1
 62
     7
 10
17.76016064062501
 20
63.22523334374997
 30
0.0
  0
VERTEX
  5
10347
  8
LAYER_1
 62
     7
 10
16.25992644133392
 20
67.46461581843168
 30
0.0
  0
VERTEX
  5
10348
  8
LAYER_1
 62
     7
 10
15.03358583796297
 20
71.812408537037
 30
0.0
  0
VERTEX
  5
10349
  8
LAYER_1
 62
     7
 10
14.09140986132813
 20
76.2569469570312
 30
0.0
  0
VERTEX
  5
1034A
  8
LAYER_1
 62
     7
 10
13.44366954224538
 20
80.78656653587959
 30
0.0
  0
VERTEX
  5
1034B
  8
LAYER_1
 62
     7
 10
13.10063591153067
 20
85.3896027310474
 30
0.0
  0
VERTEX
  5
1034C
  8
LAYER_1
 62
     7
 10
13.07258
 20
90.054391
 30
0.0
  0
SEQEND
  5
1041A
  8
LAYER_1
 62
     7
  0
POLYLINE
  5
11F
  8
LAYER_1
 62
     7
 66
     1
 10
0.0
 20
0.0
 30
0.0
  0
VERTEX
  5
1034D
  8
LAYER_1
 62
     7
 10
13.07258
 20
90.054391
 30
0.0
  0
VERTEX
  5
1034E
  8
LAYER_1
 62
     7
 10
13.3787777370515
 20
94.88104239084201
 30
0.0
  0
VERTEX
  5
1034F
  8
LAYER_1
 62
     7
 10
14.01358735474537
 20
99.61570008506945
 30
0.0
  0
VERTEX
  5
10350
  8
LAYER_1
 62
     7
 10
14.96496821289062
 20
104.2477519902344
 30
0.0
  0
VERTEX
  5
10351
  8
LAYER_1
 62
     7
 10
16.2208796712963
 20
108.7665860138889
 30
0.0
  0
VERTEX
  5
10352
  8
LAYER_1
 62
     7
 10
17.76928108977141
 20
113.1615900635851
 30
0.0
  0
VERTEX
  5
10353
  8
LAYER_1
 62
     7
 10
19.598131828125
 20
117.422152046875
 30
0.0
  0
VERTEX
  5
10354
  8
LAYER_1
 62
     7
 10
21.69539124616609
 20
121.5376598713108
 30
0.0
  0
VERTEX
  5
10355
  8
LAYER_1
 62
     7
 10
24.0490187037037
 20
125.4975014444445
 30
0.0
  0
VERTEX
  5
10356
  8
LAYER_1
 62
     7
 10
26.64697356054687
 20
129.2910646738281
 30
0.0
  0
VERTEX
  5
10357
  8
LAYER_1
 62
     7
 10
29.47721517650463
 20
132.9077374670139
 30
0.0
  0
VERTEX
  5
10358
  8
LAYER_1
 62
     7
 10
32.527702911386
 20
136.3369077315538
 30
0.0
  0
VERTEX
  5
10359
  8
LAYER_1
 62
     7
 10
35.786396125
 20
139.567963375
 30
0.0
  0
VERTEX
  5
1035A
  8
LAYER_1
 62
     7
 10
39.24125417715567
 20
142.5902923049045
 30
0.0
  0
VERTEX
  5
1035B
  8
LAYER_1
 62
     7
 10
42.88023642766203
 20
145.3932824288194
 30
0.0
  0
VERTEX
  5
1035C
  8
LAYER_1
 62
     7
 10
46.69130223632812
 20
147.9663216542969
 30
0.0
  0
VERTEX
  5
1035D
  8
LAYER_1
 62
     7
 10
50.66241096296295
 20
150.2987978888889
 30
0.0
  0
VERTEX
  5
1035E
  8
LAYER_1
 62
     7
 10
54.78152196737556
 20
152.3800990401476
 30
0.0
  0
VERTEX
  5
1035F
  8
LAYER_1
 62
     7
 10
59.03659460937498
 20
154.199613015625
 30
0.0
  0
VERTEX
  5
10360
  8
LAYER_1
 62
     7
 10
63.41558824877023
 20
155.7467277228733
 30
0.0
  0
VERTEX
  5
10361
  8
LAYER_1
 62
     7
 10
67.90646224537034
 20
157.0108310694444
 30
0.0
  0
VERTEX
  5
10362
  8
LAYER_1
 62
     7
 10
72.49717595898434
 20
157.9813109628906
 30
0.0
  0
VERTEX
  5
10363
  8
LAYER_1
 62
     7
 10
77.17568874942127
 20
158.6475553107639
 30
0.0
  0
VERTEX
  5
10364
  8
LAYER_1
 62
     7
 10
81.92995997649012
 20
158.9989520206163
 30
0.0
  0
VERTEX
  5
10365
  8
LAYER_1
 62
     7
 10
86.747949
 20
159.024889
 30
0.0
  0
SEQEND
  5
1041B
  8
LAYER_1
 62
     7
  0
POLYLINE
  5
120
  8
LAYER_1
 62
     7
 66
     1
 10
0.0
 20
0.0
 30
0.0
  0
VERTEX
  5
10366
  8
LAYER_1
 62
     7
 10
86.747949
 20
159.024889
 30
0.0
  0
VERTEX
  5
10367
  8
LAYER_1
 62
     7
 10
91.72727937991898
 20
158.7058583854167
 30
0.0
  0
VERTEX
  5
10368
  8
LAYER_1
 62
     7
 10
96.6116376435185
 20
158.0479753958333
 30
0.0
  0
VERTEX
  5
10369
  8
LAYER_1
 62
     7
 10
101.3900706015625
 20
157.0636568125
 30
0.0
  0
VERTEX
  5
1036A
  8
LAYER_1
 62
     7
 10
106.0516250648148
 20
155.7653194166667
 30
0.0
  0
VERTEX
  5
1036B
  8
LAYER_1
 62
     7
 10
110.5853478440393
 20
154.1653799895833
 30
0.0
  0
VERTEX
  5
1036C
  8
LAYER_1
 62
     7
 10
114.98028575
 20
152.2762553125
 30
0.0
  0
VERTEX
  5
1036D
  8
LAYER_1
 62
     7
 10
119.2254855934606
 20
150.1103621666667
 30
0.0
  0
VERTEX
  5
1036E
  8
LAYER_1
 62
     7
 10
123.3099941851852
 20
147.6801173333334
 30
0.0
  0
VERTEX
  5
1036F
  8
LAYER_1
 62
     7
 10
127.2228583359375
 20
144.99793759375
 30
0.0
  0
VERTEX
  5
10370
  8
LAYER_1
 62
     7
 10
130.9531248564815
 20
142.0762397291667
 30
0.0
  0
VERTEX
  5
10371
  8
LAYER_1
 62
     7
 10
134.489840557581
 20
138.9274405208333
 30
0.0
  0
VERTEX
  5
10372
  8
LAYER_1
 62
     7
 10
137.82205225
 20
135.56395675
 30
0.0
  0
VERTEX
  5
10373
  8
LAYER_1
 62
     7
 10
140.9388067445023
 20
131.9982051979167
 30
0.0
  0
VERTEX
  5
10374
  8
LAYER_1
 62
     7
 10
143.8291508518518
 20
128.2426026458334
 30
0.0
  0
VERTEX
  5
10375
  8
LAYER_1
 62
     7
 10
146.4821313828125
 20
124.309565875
 30
0.0
  0
VERTEX
  5
10376
  8
LAYER_1
 62
     7
 10
148.8867951481481
 20
120.2115116666667
 30
0.0
  0
VERTEX
  5
10377
  8
LAYER_1
 62
     7
 10
151.0321889586227
 20
115.9608568020834
 30
0.0
  0
VERTEX
  5
10378
  8
LAYER_1
 62
     7
 10
152.907359625
 20
111.5700180625
 30
0.0
  0
VERTEX
  5
10379
  8
LAYER_1
 62
     7
 10
154.501353958044
 20
107.0514122291667
 30
0.0
  0
VERTEX
  5
1037A
  8
LAYER_1
 62
     7
 10
155.8032187685185
 20
102.4174560833334
 30
0.0
  0
VERTEX
  5
1037B
  8
LAYER_1
 62
     7
 10
156.8020008671875
 20
97.68056640625004
 30
0.0
  0
VERTEX
  5
1037C
  8
LAYER_1
 62
     7
 10
157.4867470648148
 20
92.8531599791667
 30
0.0
  0
VERTEX
  5
1037D
  8
LAYER_1
 62
     7
 10
157.8465041721643
 20
87.94765358333338
 30
0.0
  0
VERTEX
  5
1037E
  8
LAYER_1
 62
     7
 10
157.870319
 20
82.97646399999999
 30
0.0
  0
SEQEND
  5
1041C
  8
LAYER_1
 62
     7
  0
POLYLINE
  5
121
  8
LAYER_1
 62
     7
 66
     1
 10
0.0
 20
0.0
 30
0.0
  0
VERTEX
  5
1037F
  8
LAYER_1
 62
     7
 10
157.870319
 20
82.97646399999999
 30
0.0
  0
VERTEX
  5
10380
  8
LAYER_1
 62
     7
 10
157.5384587172309
 20
77.84445462094907
 30
0.0
  0
VERTEX
  5
10381
  8
LAYER_1
 62
     7
 10
156.8575050086806
 20
72.81039553009259
 30
0.0
  0
VERTEX
  5
10382
  8
LAYER_1
 62
     7
 10
155.8402508339844
 20
67.885581046875
 30
0.0
  0
VERTEX
  5
10383
  8
LAYER_1
 62
     7
 10
154.4994891527778
 20
63.08130549074075
 30
0.0
  0
VERTEX
  5
10384
  8
LAYER_1
 62
     7
 10
152.8480129246962
 20
58.40886318113426
 30
0.0
  0
VERTEX
  5
10385
  8
LAYER_1
 62
     7
 10
150.898615109375
 20
53.87954843749999
 30
0.0
  0
VERTEX
  5
10386
  8
LAYER_1
 62
     7
 10
148.6640886664497
 20
49.50465557928241
 30
0.0
  0
VERTEX
  5
10387
  8
LAYER_1
 62
     7
 10
146.1572265555556
 20
45.29547892592593
 30
0.0
  0
VERTEX
  5
10388
  8
LAYER_1
 62
     7
 10
143.3908217363281
 20
41.263312796875
 30
0.0
  0
VERTEX
  5
10389
  8
LAYER_1
 62
     7
 10
140.3776671684028
 20
37.41945151157407
 30
0.0
  0
VERTEX
  5
1038A
  8
LAYER_1
 62
     7
 10
137.1305558114149
 20
33.77518938946759
 30
0.0
  0
VERTEX
  5
1038B
  8
LAYER_1
 62
     7
 10
133.662280625
 20
30.34182075
 30
0.0
  0
VERTEX
  5
1038C
  8
LAYER_1
 62
     7
 10
129.9856345687934
 20
27.13063991261574
 30
0.0
  0
VERTEX
  5
1038D
  8
LAYER_1
 62
     7
 10
126.1134106024306
 20
24.15294119675927
 30
0.0
  0
VERTEX
  5
1038E
  8
LAYER_1
 62
     7
 10
122.0584016855469
 20
21.42001892187501
 30
0.0
  0
VERTEX
  5
1038F
  8
LAYER_1
 62
     7
 10
117.8334007777778
 20
18.94316740740742
 30
0.0
  0
VERTEX
  5
10390
  8
LAYER_1
 62
     7
 10
113.4512008387587
 20
16.73368097280093
 30
0.0
  0
VERTEX
  5
10391
  8
LAYER_1
 62
     7
 10
108.924594828125
 20
14.80285393750001
 30
0.0
  0
VERTEX
  5
10392
  8
LAYER_1
 62
     7
 10
104.2663757055122
 20
13.16198062094908
 30
0.0
  0
VERTEX
  5
10393
  8
LAYER_1
 62
     7
 10
99.48933643055558
 20
11.8223553425926
 30
0.0
  0
VERTEX
  5
10394
  8
LAYER_1
 62
     7
 10
94.60626996289066
 20
10.79527242187501
 30
0.0
  0
VERTEX
  5
10395
  8
LAYER_1
 62
     7
 10
89.62996926215283
 20
10.09202617824075
 30
0.0
  0
VERTEX
  5
10396
  8
LAYER_1
 62
     7
 10
84.57322728797747
 20
9.723910931134261
 30
0.0
  0
VERTEX
  5
10397
  8
LAYER_1
 62
     7
 10
79.448837
 20
9.702221
 30
0.0
  0
SEQEND
  5
1041D
  8
LAYER_1
 62
     7
  0
POLYLINE
  5
122
  8
LAYER_1
 62
     7
 66
     1
 10
0.0
 20
0.0
 30
0.0
  0
VERTEX
  5
10398
  8
LAYER_1
 62
     7
 10
79.448837
 20
9.702221
 30
0.0
  0
VERTEX
  5
10399
  8
LAYER_1
 62
     7
 10
74.16414851200808
 20
10.04690832559317
 30
0.0
  0
VERTEX
  5
1039A
  8
LAYER_1
 62
     7
 10
68.9803882835648
 20
10.75093060474537
 30
0.0
  0
VERTEX
  5
1039B
  8
LAYER_1
 62
     7
 10
63.90919179296876
 20
11.80111866601563
 30
0.0
  0
VERTEX
  5
1039C
  8
LAYER_1
 62
     7
 10
58.96219451851854
 20
13.18430333796297
 30
0.0
  0
VERTEX
  5
1039D
  8
LAYER_1
 62
     7
 10
54.15103193851274
 20
14.88731544914641
 30
0.0
  0
VERTEX
  5
1039E
  8
LAYER_1
 62
     7
 10
49.48733953124999
 20
16.896985828125
 30
0.0
  0
VERTEX
  5
1039F
  8
LAYER_1
 62
     7
 10
44.98275277502894
 20
19.20014530345775
 30
0.0
  0
VERTEX
  5
103A0
  8
LAYER_1
 62
     7
 10
40.64890714814815
 20
21.7836247037037
 30
0.0
  0
VERTEX
  5
103A1
  8
LAYER_1
 62
     7
 10
36.49743812890625
 20
24.63425485742188
 30
0.0
  0
VERTEX
  5
103A2
  8
LAYER_1
 62
     7
 10
32.53998119560185
 20
27.7388665931713
 30
0.0
  0
VERTEX
  5
103A3
  8
LAYER_1
 62
     7
 10
28.78817182653356
 20
31.084290739511
 30
0.0
  0
VERTEX
  5
103A4
  8
LAYER_1
 62
     7
 10
25.2536455
 20
34.657358125
 30
0.0
  0
VERTEX
  5
103A5
  8
LAYER_1
 62
     7
 10
21.94803769429977
 20
38.44489957819734
 30
0.0
  0
VERTEX
  5
103A6
  8
LAYER_1
 62
     7
 10
18.88298388773149
 20
42.43374592766203
 30
0.0
  0
VERTEX
  5
103A7
  8
LAYER_1
 62
     7
 10
16.07011955859376
 20
46.61072800195312
 30
0.0
  0
VERTEX
  5
103A8
  8
LAYER_1
 62
     7
 10
13.52108018518519
 20
50.96267662962962
 30
0.0
  0
VERTEX
  5
103A9
  8
LAYER_1
 62
     7
 10
11.24750124580441
 20
55.47642263925056
 30
0.0
  0
VERTEX
  5
103AA
  8
LAYER_1
 62
     7
 10
9.26101821875001
 20
60.13879685937498
 30
0.0
  0
VERTEX
  5
103AB
  8
LAYER_1
 62
     7
 10
7.573266582320612
 20
64.9366301185619
 30
0.0
  0
VERTEX
  5
103AC
  8
LAYER_1
 62
     7
 10
6.195881814814824
 20
69.85675324537034
 30
0.0
  0
VERTEX
  5
103AD
  8
LAYER_1
 62
     7
 10
5.140499394531257
 20
74.88599706835934
 30
0.0
  0
VERTEX
  5
103AE
  8
LAYER_1
 62
     7
 10
4.418754799768523
 20
80.01119241608792
 30
0.0
  0
VERTEX
  5
103AF
  8
LAYER_1
 62
     7
 10
4.042283508825233
 20
85.21917011711511
 30
0.0
  0
VERTEX
  5
103B0
  8
LAYER_1
 62
     7
 10
4.022721
 20
90.496761
 30
0.0
  0
SEQEND
  5
1041E
  8
LAYER_1
 62
     7
  0
POLYLINE
  5
123
  8
LAYER_1
 62
     7
 66
     1
 10
0.0
 20
0.0
 30
0.0
  0
VERTEX
  5
103B1
  8
LAYER_1
 62
     7
 10
4.022721
 20
90.496761
 30
0.0
  0
VERTEX
  5
103B2
  8
LAYER_1
 62
     7
 10
4.38023273292824
 20
95.93412858680556
 30
0.0
  0
VERTEX
  5
103B3
  8
LAYER_1
 62
     7
 10
5.107321405092593
 20
101.2675901527778
 30
0.0
  0
VERTEX
  5
103B4
  8
LAYER_1
 62
     7
 10
6.1904416015625
 20
106.48516903125
 30
0.0
  0
VERTEX
  5
103B5
  8
LAYER_1
 62
     7
 10
7.616047907407408
 20
111.5748885555556
 30
0.0
  0
VERTEX
  5
103B6
  8
LAYER_1
 62
     7
 10
9.370594907696757
 20
116.5247720590278
 30
0.0
  0
VERTEX
  5
103B7
  8
LAYER_1
 62
     7
 10
11.4405371875
 20
121.322842875
 30
0.0
  0
VERTEX
  5
103B8
  8
LAYER_1
 62
     7
 10
13.81232933188657
 20
125.9571243368055
 30
0.0
  0
VERTEX
  5
103B9
  8
LAYER_1
 62
     7
 10
16.47242592592593
 20
130.4156397777778
 30
0.0
  0
VERTEX
  5
103BA
  8
LAYER_1
 62
     7
 10
19.4072815546875
 20
134.68641253125
 30
0.0
  0
VERTEX
  5
103BB
  8
LAYER_1
 62
     7
 10
22.60335080324074
 20
138.7574659305556
 30
0.0
  0
VERTEX
  5
103BC
  8
LAYER_1
 62
     7
 10
26.0470882566551
 20
142.6168233090278
 30
0.0
  0
VERTEX
  5
103BD
  8
LAYER_1
 62
     7
 10
29.7249485
 20
146.252508
 30
0.0
  0
VERTEX
  5
103BE
  8
LAYER_1
 62
     7
 10
33.6233861183449
 20
149.6525433368056
 30
0.0
  0
VERTEX
  5
103BF
  8
LAYER_1
 62
     7
 10
37.72885569675925
 20
152.8049526527778
 30
0.0
  0
VERTEX
  5
103C0
  8
LAYER_1
 62
     7
 10
42.02781182031249
 20
155.69775928125
 30
0.0
  0
VERTEX
  5
103C1
  8
LAYER_1
 62
     7
 10
46.50670907407406
 20
158.3189865555555
 30
0.0
  0
VERTEX
  5
103C2
  8
LAYER_1
 62
     7
 10
51.15200204311341
 20
160.6566578090278
 30
0.0
  0
VERTEX
  5
103C3
  8
LAYER_1
 62
     7
 10
55.95014531249997
 20
162.698796375
 30
0.0
  0
VERTEX
  5
103C4
  8
LAYER_1
 62
     7
 10
60.88759346730321
 20
164.4334255868056
 30
0.0
  0
VERTEX
  5
103C5
  8
LAYER_1
 62
     7
 10
65.95080109259256
 20
165.8485687777778
 30
0.0
  0
VERTEX
  5
103C6
  8
LAYER_1
 62
     7
 10
71.12622277343746
 20
166.93224928125
 30
0.0
  0
VERTEX
  5
103C7
  8
LAYER_1
 62
     7
 10
76.40031309490737
 20
167.6724904305556
 30
0.0
  0
VERTEX
  5
103C8
  8
LAYER_1
 62
     7
 10
81.7595266420717
 20
168.0573155590278
 30
0.0
  0
VERTEX
  5
103C9
  8
LAYER_1
 62
     7
 10
87.190318
 20
168.074748
 30
0.0
  0
SEQEND
  5
1041F
  8
LAYER_1
 62
     7
  0
POLYLINE
  5
124
  8
LAYER_1
 62
     7
 66
     1
 10
0.0
 20
0.0
 30
0.0
  0
VERTEX
  5
103CA
  8
LAYER_1
 62
     7
 10
87.190318
 20
168.074748
 30
0.0
  0
VERTEX
  5
103CB
  8
LAYER_1
 62
     7
 10
92.78036513006367
 20
167.7044145
 30
0.0
  0
VERTEX
  5
103CC
  8
LAYER_1
 62
     7
 10
98.26352860300926
 20
166.954261625
 30
0.0
  0
VERTEX
  5
103CD
  8
LAYER_1
 62
     7
 10
103.6274905429688
 20
165.8382110625
 30
0.0
  0
VERTEX
  5
103CE
  8
LAYER_1
 62
     7
 10
108.8599330740741
 20
164.3701845000001
 30
0.0
  0
VERTEX
  5
103CF
  8
LAYER_1
 62
     7
 10
113.9485383204572
 20
162.564103625
 30
0.0
  0
VERTEX
  5
103D0
  8
LAYER_1
 62
     7
 10
118.88098840625
 20
160.433890125
 30
0.0
  0
VERTEX
  5
103D1
  8
LAYER_1
 62
     7
 10
123.6449654555845
 20
157.9934656875
 30
0.0
  0
VERTEX
  5
103D2
  8
LAYER_1
 62
     7
 10
128.2281515925926
 20
155.256752
 30
0.0
  0
VERTEX
  5
103D3
  8
LAYER_1
 62
     7
 10
132.6182289414062
 20
152.23767075
 30
0.0
  0
VERTEX
  5
103D4
  8
LAYER_1
 62
     7
 10
136.8028796261574
 20
148.950143625
 30
0.0
  0
VERTEX
  5
103D5
  8
LAYER_1
 62
     7
 10
140.769785770978
 20
145.4080923125
 30
0.0
  0
VERTEX
  5
103D6
  8
LAYER_1
 62
     7
 10
144.5066295
 20
141.6254385
 30
0.0
  0
VERTEX
  5
103D7
  8
LAYER_1
 62
     7
 10
148.0010929373553
 20
137.616103875
 30
0.0
  0
VERTEX
  5
103D8
  8
LAYER_1
 62
     7
 10
151.2408582071759
 20
133.394010125
 30
0.0
  0
VERTEX
  5
103D9
  8
LAYER_1
 62
     7
 10
154.2136074335938
 20
128.9730789375
 30
0.0
  0
VERTEX
  5
103DA
  8
LAYER_1
 62
     7
 10
156.9070227407407
 20
124.367232
 30
0.0
  0
VERTEX
  5
103DB
  8
LAYER_1
 62
     7
 10
159.3087862527488
 20
119.590391
 30
0.0
  0
VERTEX
  5
103DC
  8
LAYER_1
 62
     7
 10
161.40658009375
 20
114.656477625
 30
0.0
  0
VERTEX
  5
103DD
  8
LAYER_1
 62
     7
 10
163.1880863878762
 20
109.5794135625
 30
0.0
  0
VERTEX
  5
103DE
  8
LAYER_1
 62
     7
 10
164.6409872592592
 20
104.3731205
 30
0.0
  0
VERTEX
  5
103DF
  8
LAYER_1
 62
     7
 10
165.7529648320312
 20
99.05152012500004
 30
0.0
  0
VERTEX
  5
103E0
  8
LAYER_1
 62
     7
 10
166.5117012303241
 20
93.62853412500006
 30
0.0
  0
VERTEX
  5
103E1
  8
LAYER_1
 62
     7
 10
166.9048785782697
 20
88.11808418750006
 30
0.0
  0
VERTEX
  5
103E2
  8
LAYER_1
 62
     7
 10
166.920179
 20
82.534092
 30
0.0
  0
SEQEND
  5
10420
  8
LAYER_1
 62
     7
  0
POLYLINE
  5
125
  8
LAYER_1
 62
     7
 66
     1
 10
0.0
 20
0.0
 30
0.0
  0
VERTEX
  5
103E3
  8
LAYER_1
 62
     7
 10
166.920179
 20
82.534092
 30
0.0
  0
VERTEX
  5
103E4
  8
LAYER_1
 62
     7
 10
166.5723644252749
 20
77.15117044567417
 30
0.0
  0
VERTEX
  5
103E5
  8
LAYER_1
 62
     7
 10
165.8799334438657
 20
71.85789941956018
 30
0.0
  0
VERTEX
  5
103E6
  8
LAYER_1
 62
     7
 10
164.8544120449218
 20
66.66547812695313
 30
0.0
  0
VERTEX
  5
103E7
  8
LAYER_1
 62
     7
 10
163.5073262175926
 20
61.58510577314816
 30
0.0
  0
VERTEX
  5
103E8
  8
LAYER_1
 62
     7
 10
161.8502019510272
 20
56.6279815634404
 30
0.0
  0
VERTEX
  5
103E9
  8
LAYER_1
 62
     7
 10
159.894565234375
 20
51.805304703125
 30
0.0
  0
VERTEX
  5
103EA
  8
LAYER_1
 62
     7
 10
157.6519420567853
 20
47.12827439749711
 30
0.0
  0
VERTEX
  5
103EB
  8
LAYER_1
 62
     7
 10
155.1338584074074
 20
42.60808985185186
 30
0.0
  0
VERTEX
  5
103EC
  8
LAYER_1
 62
     7
 10
152.3518402753906
 20
38.25595027148438
 30
0.0
  0
VERTEX
  5
103ED
  8
LAYER_1
 62
     7
 10
149.3174136498843
 20
34.08305486168981
 30
0.0
  0
VERTEX
  5
103EE
  8
LAYER_1
 62
     7
 10
146.0421045200376
 20
30.10060282776331
 30
0.0
  0
VERTEX
  5
103EF
  8
LAYER_1
 62
     7
 10
142.537438875
 20
26.319793375
 30
0.0
  0
VERTEX
  5
103F0
  8
LAYER_1
 62
     7
 10
138.8149427039207
 20
22.75182570869503
 30
0.0
  0
VERTEX
  5
103F1
  8
LAYER_1
 62
     7
 10
134.8861419959491
 20
19.40789903414353
 30
0.0
  0
VERTEX
  5
103F2
  8
LAYER_1
 62
     7
 10
130.7625627402344
 20
16.29921255664063
 30
0.0
  0
VERTEX
  5
103F3
  8
LAYER_1
 62
     7
 10
126.4557309259259
 20
13.43696548148149
 30
0.0
  0
VERTEX
  5
103F4
  8
LAYER_1
 62
     7
 10
121.9771725421731
 20
10.83235701396124
 30
0.0
  0
VERTEX
  5
103F5
  8
LAYER_1
 62
     7
 10
117.338413578125
 20
8.496586359375012
 30
0.0
  0
VERTEX
  5
103F6
  8
LAYER_1
 62
     7
 10
112.5509800229312
 20
6.440852723017952
 30
0.0
  0
VERTEX
  5
103F7
  8
LAYER_1
 62
     7
 10
107.6263978657408
 20
4.676355310185197
 30
0.0
  0
VERTEX
  5
103F8
  8
LAYER_1
 62
     7
 10
102.5761930957032
 20
3.214293326171885
 30
0.0
  0
VERTEX
  5
103F9
  8
LAYER_1
 62
     7
 10
97.41189170196765
 20
2.065865976273157
 30
0.0
  0
VERTEX
  5
103FA
  8
LAYER_1
 62
     7
 10
92.1450196736835
 20
1.24227246578415
 30
0.0
  0
VERTEX
  5
103FB
  8
LAYER_1
 62
     7
 10
86.787103
 20
0.754712
 30
0.0
  0
SEQEND
  5
10421
  8
LAYER_1
 62
     7
  0
ENDSEC
  0
EOF
