  0
SECTION
  2
HEADER
  9
$ACADVER
  1
AC1014
  9
$HANDSEED
  5
FFFF
  9
$MEASUREMENT
 70
     1
  0
ENDSEC
  0
SECTION
  2
TABLES
  0
TABLE
  2
VPORT
  5
8
330
0
100
AcDbSymbolTable
 70
     4
  0
VPORT
  5
2E
330
8
100
AcDbSymbolTableRecord
100
AcDbViewportTableRecord
  2
*ACTIVE
 70
     0
 10
0.0
 20
0.0
 11
1.0
 21
1.0
 12
210.0
 22
148.5
 13
0.0
 23
0.0
 14
10.0
 24
10.0
 15
10.0
 25
10.0
 16
0.0
 26
0.0
 36
1.0
 17
0.0
 27
0.0
 37
0.0
 40
341.0
 41
1.24
 42
50.0
 43
0.0
 44
0.0
 50
0.0
 51
0.0
 71
     0
 72
   100
 73
     1
 74
     3
 75
     0
 76
     0
 77
     0
 78
     0
  0
ENDTAB
  0
TABLE
  2
LTYPE
  5
5
330
0
100
AcDbSymbolTable
 70
     1
  0
LTYPE
  5
14
330
5
100
AcDbSymbolTableRecord
100
AcDbLinetypeTableRecord
  2
BYBLOCK
 70
     0
  3

 72
    65
 73
     0
 40
0.0
  0
LTYPE
  5
15
330
5
100
AcDbSymbolTableRecord
100
AcDbLinetypeTableRecord
  2
BYLAYER
 70
     0
  3

 72
    65
 73
     0
 40
0.0
  0
LTYPE
  5
16
330
5
100
AcDbSymbolTableRecord
100
AcDbLinetypeTableRecord
  2
CONTINUOUS
 70
     0
  3
Solid line
 72
    65
 73
     0
 40
0.0
  0
ENDTAB
  0
TABLE
  2
LAYER
  5
2
100
AcDbSymbolTable
 70
2
  0
LAYER
  5
50
100
AcDbSymbolTableRecord
100
AcDbLayerTableRecord
  2
0
 70
0
  6
CONTINUOUS
  0
LAYER
  5
51
100
AcDbSymbolTableRecord
100
AcDbLayerTableRecord
  2
Layer_1
 70
0
  6
CONTINUOUS
  0
ENDTAB
  0
TABLE
  2
STYLE
  5
3
330
0
100
AcDbSymbolTable
 70
     1
  0
STYLE
  5
11
330
3
100
AcDbSymbolTableRecord
100
AcDbTextStyleTableRecord
  2
STANDARD
 70
     0
 40
0.0
 41
1.0
 50
0.0
 71
     0
 42
2.5
  3
txt
  4

  0
ENDTAB
  0
TABLE
  2
VIEW
  5
6
330
0
100
AcDbSymbolTable
 70
     0
  0
ENDTAB
  0
TABLE
  2
UCS
  5
7
330
0
100
AcDbSymbolTable
 70
     0
  0
ENDTAB
  0
TABLE
  2
APPID
  5
9
330
0
100
AcDbSymbolTable
 70
     2
  0
APPID
  5
12
330
9
100
AcDbSymbolTableRecord
100
AcDbRegAppTableRecord
  2
ACAD
 70
     0
  0
ENDTAB
  0
TABLE
  2
DIMSTYLE
  5
A
330
0
100
AcDbSymbolTable
 70
     1
  0
DIMSTYLE
105
27
330
A
100
AcDbSymbolTableRecord
100
AcDbDimStyleTableRecord
  2
ISO-25
 70
     0
  3

  4

  5

  6

  7

 40
1.0
 41
2.5
 42
0.625
 43
3.75
 44
1.25
 45
0.0
 46
0.0
 47
0.0
 48
0.0
140
2.5
141
2.5
142
0.0
143
0.03937007874016
144
1.0
145
0.0
146
1.0
147
0.625
 71
     0
 72
     0
 73
     0
 74
     0
 75
     0
 76
     0
 77
     1
 78
     8
170
     0
171
     3
172
     1
173
     0
174
     0
175
     0
176
     0
177
     0
178
     0
270
     2
271
     2
272
     2
273
     2
274
     3
340
11
275
     0
280
     0
281
     0
282
     0
283
     0
284
     8
285
     0
286
     0
287
     3
288
     0
  0
ENDTAB
  0
TABLE
  2
BLOCK_RECORD
  5
1
330
0
100
AcDbSymbolTable
 70
     1
  0
BLOCK_RECORD
  5
1F
330
1
100
AcDbSymbolTableRecord
100
AcDbBlockTableRecord
  2
*MODEL_SPACE
  0
BLOCK_RECORD
  5
1B
330
1
100
AcDbSymbolTableRecord
100
AcDbBlockTableRecord
  2
*PAPER_SPACE
  0
ENDTAB
  0
ENDSEC
  0
SECTION
  2
BLOCKS
  0
BLOCK
  5
20
330
1F
100
AcDbEntity
  8
0
100
AcDbBlockBegin
  2
*MODEL_SPACE
 70
     0
 10
0.0
 20
0.0
 30
0.0
  3
*MODEL_SPACE
  1

  0
ENDBLK
  5
21
330
1F
100
AcDbEntity
  8
0
100
AcDbBlockEnd
  0
BLOCK
  5
1C
330
1B
100
AcDbEntity
 67
     1
  8
0
100
AcDbBlockBegin
  2
*PAPER_SPACE
  1

  0
ENDBLK
  5
1D
330
1B
100
AcDbEntity
 67
     1
  8
0
100
AcDbBlockEnd
  0
ENDSEC
  0
SECTION
  2
ENTITIES
  0
SPLINE
  5
100
100
AcDbEntity
  8
Layer_1
 62
7
100
AcDbSpline
 70
8
 71
3
 72
8
 73
4
 74
0
 40
0
 40
0
 40
0
 40
0
 40
1
 40
1
 40
1
 40
1
 10
11.142583
 20
8.999998
 30
0.0
 10
10.895131
 20
8.999998
 30
0.0
 10
10.640582
 20
8.912817
 30
0.0
 10
10.378944
 20
8.738452
 30
0.0
  0
SPLINE
  5
101
100
AcDbEntity
  8
Layer_1
 62
7
100
AcDbSpline
 70
8
 71
3
 72
8
 73
4
 74
0
 40
0
 40
0
 40
0
 40
0
 40
1
 40
1
 40
1
 40
1
 10
10.378944
 20
8.738452
 30
0.0
 10
10.117306
 20
8.564087
 30
0.0
 10
9.875375
 20
8.330927
 30
0.0
 10
9.653142
 20
8.038968
 30
0.0
  0
SPLINE
  5
102
100
AcDbEntity
  8
Layer_1
 62
7
100
AcDbSpline
 70
8
 71
3
 72
8
 73
4
 74
0
 40
0
 40
0
 40
0
 40
0
 40
1
 40
1
 40
1
 40
1
 10
9.653142
 20
8.038968
 30
0.0
 10
9.485448
 20
7.818661
 30
0.0
 10
9.343361
 20
7.583326
 30
0.0
 10
9.226821
 20
7.333004
 30
0.0
  0
SPLINE
  5
103
100
AcDbEntity
  8
Layer_1
 62
7
100
AcDbSpline
 70
8
 71
3
 72
8
 73
4
 74
0
 40
0
 40
0
 40
0
 40
0
 40
1
 40
1
 40
1
 40
1
 10
9.226821
 20
7.333004
 30
0.0
 10
9.226054
 20
7.335677
 30
0.0
 10
9.225266
 20
7.338285
 30
0.0
 10
9.224416
 20
7.340774
 30
0.0
  0
SPLINE
  5
104
100
AcDbEntity
  8
Layer_1
 62
7
100
AcDbSpline
 70
8
 71
3
 72
8
 73
4
 74
0
 40
0
 40
0
 40
0
 40
0
 40
1
 40
1
 40
1
 40
1
 10
9.224416
 20
7.340774
 30
0.0
 10
9.189674
 20
7.442567
 30
0.0
 10
9.180800
 20
7.461205
 30
0.0
 10
9.134685
 20
7.529358
 30
0.0
  0
SPLINE
  5
105
100
AcDbEntity
  8
Layer_1
 62
7
100
AcDbSpline
 70
8
 71
3
 72
8
 73
4
 74
0
 40
0
 40
0
 40
0
 40
0
 40
1
 40
1
 40
1
 40
1
 10
9.134685
 20
7.529358
 30
0.0
 10
9.039038
 20
7.670714
 30
0.0
 10
8.918331
 20
7.732920
 30
0.0
 10
8.681598
 20
7.762846
 30
0.0
  0
SPLINE
  5
106
100
AcDbEntity
  8
Layer_1
 62
7
100
AcDbSpline
 70
8
 71
3
 72
8
 73
4
 74
0
 40
0
 40
0
 40
0
 40
0
 40
1
 40
1
 40
1
 40
1
 10
8.681598
 20
7.762846
 30
0.0
 10
8.384608
 20
7.800388
 30
0.0
 10
8.365850
 20
7.813046
 30
0.0
 10
8.266274
 20
8.043009
 30
0.0
  0
SPLINE
  5
107
100
AcDbEntity
  8
Layer_1
 62
7
100
AcDbSpline
 70
8
 71
3
 72
8
 73
4
 74
0
 40
0
 40
0
 40
0
 40
0
 40
1
 40
1
 40
1
 40
1
 10
8.266274
 20
8.043009
 30
0.0
 10
8.231592
 20
8.123104
 30
0.0
 10
8.177165
 20
8.221357
 30
0.0
 10
8.145329
 20
8.261346
 30
0.0
  0
SPLINE
  5
108
100
AcDbEntity
  8
Layer_1
 62
7
100
AcDbSpline
 70
8
 71
3
 72
8
 73
4
 74
0
 40
0
 40
0
 40
0
 40
0
 40
1
 40
1
 40
1
 40
1
 10
8.145329
 20
8.261346
 30
0.0
 10
8.070631
 20
8.355174
 30
0.0
 10
7.905086
 20
8.447961
 30
0.0
 10
7.763880
 20
8.475159
 30
0.0
  0
SPLINE
  5
109
100
AcDbEntity
  8
Layer_1
 62
7
100
AcDbSpline
 70
8
 71
3
 72
8
 73
4
 74
0
 40
0
 40
0
 40
0
 40
0
 40
1
 40
1
 40
1
 40
1
 10
7.763880
 20
8.475159
 30
0.0
 10
7.639067
 20
8.499201
 30
0.0
 10
7.455333
 20
8.482043
 30
0.0
 10
7.355105
 20
8.436983
 30
0.0
  0
SPLINE
  5
10a
100
AcDbEntity
  8
Layer_1
 62
7
100
AcDbSpline
 70
8
 71
3
 72
8
 73
4
 74
0
 40
0
 40
0
 40
0
 40
0
 40
1
 40
1
 40
1
 40
1
 10
7.355105
 20
8.436983
 30
0.0
 10
7.266300
 20
8.397061
 30
0.0
 10
7.134434
 20
8.296761
 30
0.0
 10
7.049474
 20
8.204513
 30
0.0
  0
SPLINE
  5
10b
100
AcDbEntity
  8
Layer_1
 62
7
100
AcDbSpline
 70
8
 71
3
 72
8
 73
4
 74
0
 40
0
 40
0
 40
0
 40
0
 40
1
 40
1
 40
1
 40
1
 10
7.049474
 20
8.204513
 30
0.0
 10
6.939300
 20
8.084890
 30
0.0
 10
6.854245
 20
8.084323
 30
0.0
 10
6.601064
 20
8.201529
 30
0.0
  0
SPLINE
  5
10c
100
AcDbEntity
  8
Layer_1
 62
7
100
AcDbSpline
 70
8
 71
3
 72
8
 73
4
 74
0
 40
0
 40
0
 40
0
 40
0
 40
1
 40
1
 40
1
 40
1
 10
6.601064
 20
8.201529
 30
0.0
 10
6.449700
 20
8.271600
 30
0.0
 10
6.364489
 20
8.285236
 30
0.0
 10
6.182946
 20
8.268454
 30
0.0
  0
SPLINE
  5
10d
100
AcDbEntity
  8
Layer_1
 62
7
100
AcDbSpline
 70
8
 71
3
 72
8
 73
4
 74
0
 40
0
 40
0
 40
0
 40
0
 40
1
 40
1
 40
1
 40
1
 10
6.182946
 20
8.268454
 30
0.0
 10
5.959757
 20
8.247822
 30
0.0
 10
5.878031
 20
8.205106
 30
0.0
 10
5.749177
 20
8.041681
 30
0.0
  0
SPLINE
  5
10e
100
AcDbEntity
  8
Layer_1
 62
7
100
AcDbSpline
 70
8
 71
3
 72
8
 73
4
 74
0
 40
0
 40
0
 40
0
 40
0
 40
1
 40
1
 40
1
 40
1
 10
5.749177
 20
8.041681
 30
0.0
 10
5.647181
 20
7.912320
 30
0.0
 10
5.601642
 20
7.806388
 30
0.0
 10
5.596617
 20
7.686848
 30
0.0
  0
SPLINE
  5
10f
100
AcDbEntity
  8
Layer_1
 62
7
100
AcDbSpline
 70
8
 71
3
 72
8
 73
4
 74
0
 40
0
 40
0
 40
0
 40
0
 40
1
 40
1
 40
1
 40
1
 10
5.596617
 20
7.686848
 30
0.0
 10
5.582664
 20
7.354920
 30
0.0
 10
5.549005
 20
7.309520
 30
0.0
 10
5.229372
 20
7.191463
 30
0.0
  0
SPLINE
  5
110
100
AcDbEntity
  8
Layer_1
 62
7
100
AcDbSpline
 70
8
 71
3
 72
8
 73
4
 74
0
 40
0
 40
0
 40
0
 40
0
 40
1
 40
1
 40
1
 40
1
 10
5.229372
 20
7.191463
 30
0.0
 10
5.139880
 20
7.158408
 30
0.0
 10
5.059207
 20
7.090048
 30
0.0
 10
4.998344
 20
6.996216
 30
0.0
  0
SPLINE
  5
111
100
AcDbEntity
  8
Layer_1
 62
7
100
AcDbSpline
 70
8
 71
3
 72
8
 73
4
 74
0
 40
0
 40
0
 40
0
 40
0
 40
1
 40
1
 40
1
 40
1
 10
4.998344
 20
6.996216
 30
0.0
 10
4.991825
 20
7.346318
 30
0.0
 10
4.939406
 20
7.647646
 30
0.0
 10
4.841058
 20
7.900178
 30
0.0
  0
SPLINE
  5
112
100
AcDbEntity
  8
Layer_1
 62
7
100
AcDbSpline
 70
8
 71
3
 72
8
 73
4
 74
0
 40
0
 40
0
 40
0
 40
0
 40
1
 40
1
 40
1
 40
1
 10
4.841058
 20
7.900178
 30
0.0
 10
4.737256
 20
8.170637
 30
0.0
 10
4.584609
 20
8.374655
 30
0.0
 10
4.383110
 20
8.512215
 30
0.0
  0
SPLINE
  5
113
100
AcDbEntity
  8
Layer_1
 62
7
100
AcDbSpline
 70
8
 71
3
 72
8
 73
4
 74
0
 40
0
 40
0
 40
0
 40
0
 40
1
 40
1
 40
1
 40
1
 10
4.383110
 20
8.512215
 30
0.0
 10
4.181611
 20
8.649776
 30
0.0
 10
3.937366
 20
8.718557
 30
0.0
 10
3.650382
 20
8.718557
 30
0.0
  0
SPLINE
  5
114
100
AcDbEntity
  8
Layer_1
 62
7
100
AcDbSpline
 70
8
 71
3
 72
8
 73
4
 74
0
 40
0
 40
0
 40
0
 40
0
 40
1
 40
1
 40
1
 40
1
 10
3.650382
 20
8.718557
 30
0.0
 10
3.383243
 20
8.718557
 30
0.0
 10
3.135954
 20
8.696401
 30
0.0
 10
2.908504
 20
8.652102
 30
0.0
  0
SPLINE
  5
115
100
AcDbEntity
  8
Layer_1
 62
7
100
AcDbSpline
 70
8
 71
3
 72
8
 73
4
 74
0
 40
0
 40
0
 40
0
 40
0
 40
1
 40
1
 40
1
 40
1
 10
2.908504
 20
8.652102
 30
0.0
 10
2.681055
 20
8.607803
 30
0.0
 10
2.500923
 20
8.546024
 30
0.0
 10
2.368117
 20
8.466751
 30
0.0
  0
SPLINE
  5
116
100
AcDbEntity
  8
Layer_1
 62
7
100
AcDbSpline
 70
8
 71
3
 72
8
 73
4
 74
0
 40
0
 40
0
 40
0
 40
0
 40
1
 40
1
 40
1
 40
1
 10
2.368117
 20
8.466751
 30
0.0
 10
2.310109
 20
8.429447
 30
0.0
 10
2.253634
 20
8.366492
 30
0.0
 10
2.198680
 20
8.277894
 30
0.0
  0
SPLINE
  5
117
100
AcDbEntity
  8
Layer_1
 62
7
100
AcDbSpline
 70
8
 71
3
 72
8
 73
4
 74
0
 40
0
 40
0
 40
0
 40
0
 40
1
 40
1
 40
1
 40
1
 10
2.198680
 20
8.277894
 30
0.0
 10
2.143725
 20
8.189295
 30
0.0
 10
2.098689
 20
8.089030
 30
0.0
 10
2.063580
 20
7.977116
 30
0.0
  0
SPLINE
  5
118
100
AcDbEntity
  8
Layer_1
 62
7
100
AcDbSpline
 70
8
 71
3
 72
8
 73
4
 74
0
 40
0
 40
0
 40
0
 40
0
 40
1
 40
1
 40
1
 40
1
 10
2.063580
 20
7.977116
 30
0.0
 10
2.029996
 20
7.867534
 30
0.0
 10
2.013204
 20
7.766119
 30
0.0
 10
2.013204
 20
7.672858
 30
0.0
  0
SPLINE
  5
119
100
AcDbEntity
  8
Layer_1
 62
7
100
AcDbSpline
 70
8
 71
3
 72
8
 73
4
 74
0
 40
0
 40
0
 40
0
 40
0
 40
1
 40
1
 40
1
 40
1
 10
2.013204
 20
7.672858
 30
0.0
 10
2.013204
 20
7.633222
 30
0.0
 10
2.018545
 20
7.605239
 30
0.0
 10
2.029230
 20
7.588918
 30
0.0
  0
SPLINE
  5
11a
100
AcDbEntity
  8
Layer_1
 62
7
100
AcDbSpline
 70
8
 71
3
 72
8
 73
4
 74
0
 40
0
 40
0
 40
0
 40
0
 40
1
 40
1
 40
1
 40
1
 10
2.029230
 20
7.588918
 30
0.0
 10
2.041442
 20
7.572597
 30
0.0
 10
2.062817
 20
7.564445
 30
0.0
 10
2.093348
 20
7.564445
 30
0.0
  0
SPLINE
  5
11b
100
AcDbEntity
  8
Layer_1
 62
7
100
AcDbSpline
 70
8
 71
3
 72
8
 73
4
 74
0
 40
0
 40
0
 40
0
 40
0
 40
1
 40
1
 40
1
 40
1
 10
2.093348
 20
7.564445
 30
0.0
 10
2.151355
 20
7.564445
 30
0.0
 10
2.257450
 20
7.605244
 30
0.0
 10
2.411627
 20
7.686848
 30
0.0
  0
SPLINE
  5
11c
100
AcDbEntity
  8
Layer_1
 62
7
100
AcDbSpline
 70
8
 71
3
 72
8
 73
4
 74
0
 40
0
 40
0
 40
0
 40
0
 40
1
 40
1
 40
1
 40
1
 10
2.411627
 20
7.686848
 30
0.0
 10
2.508417
 20
7.739875
 30
0.0
 10
2.582346
 20
7.774607
 30
0.0
 10
2.633456
 20
7.791088
 30
0.0
  0
SPLINE
  5
11d
100
AcDbEntity
  8
Layer_1
 62
7
100
AcDbSpline
 70
8
 71
3
 72
8
 73
4
 74
0
 40
0
 40
0
 40
0
 40
0
 40
1
 40
1
 40
1
 40
1
 10
2.633456
 20
7.791088
 30
0.0
 10
2.634015
 20
7.791363
 30
0.0
 10
2.634496
 20
7.791647
 30
0.0
 10
2.635059
 20
7.791934
 30
0.0
  0
SPLINE
  5
11e
100
AcDbEntity
  8
Layer_1
 62
7
100
AcDbSpline
 70
8
 71
3
 72
8
 73
4
 74
0
 40
0
 40
0
 40
0
 40
0
 40
1
 40
1
 40
1
 40
1
 10
2.635059
 20
7.791934
 30
0.0
 10
2.737261
 20
7.844385
 30
0.0
 10
2.932767
 20
7.861076
 30
0.0
 10
2.932767
 20
7.861076
 30
0.0
  0
SPLINE
  5
11f
100
AcDbEntity
  8
Layer_1
 62
7
100
AcDbSpline
 70
8
 71
3
 72
8
 73
4
 74
0
 40
0
 40
0
 40
0
 40
0
 40
1
 40
1
 40
1
 40
1
 10
2.932767
 20
7.861076
 30
0.0
 10
2.932767
 20
7.861076
 30
0.0
 10
3.152923
 20
7.895931
 30
0.0
 10
3.237158
 20
7.882536
 30
0.0
  0
SPLINE
  5
120
100
AcDbEntity
  8
Layer_1
 62
7
100
AcDbSpline
 70
8
 71
3
 72
8
 73
4
 74
0
 40
0
 40
0
 40
0
 40
0
 40
1
 40
1
 40
1
 40
1
 10
3.237158
 20
7.882536
 30
0.0
 10
3.334362
 20
7.867079
 30
0.0
 10
3.384776
 20
7.898250
 30
0.0
 10
3.499157
 20
7.871636
 30
0.0
  0
SPLINE
  5
121
100
AcDbEntity
  8
Layer_1
 62
7
100
AcDbSpline
 70
8
 71
3
 72
8
 73
4
 74
0
 40
0
 40
0
 40
0
 40
0
 40
1
 40
1
 40
1
 40
1
 10
3.499236
 20
7.872199
 30
0.0
 10
3.625936
 20
7.860541
 30
0.0
 10
3.738141
 20
7.788272
 30
0.0
 10
3.835838
 20
7.655374
 30
0.0
  0
SPLINE
  5
122
100
AcDbEntity
  8
Layer_1
 62
7
100
AcDbSpline
 70
8
 71
3
 72
8
 73
4
 74
0
 40
0
 40
0
 40
0
 40
0
 40
1
 40
1
 40
1
 40
1
 10
3.835838
 20
7.655374
 30
0.0
 10
3.933534
 20
7.524808
 30
0.0
 10
4.009857
 20
7.345272
 30
0.0
 10
4.064811
 20
7.116781
 30
0.0
  0
SPLINE
  5
123
100
AcDbEntity
  8
Layer_1
 62
7
100
AcDbSpline
 70
8
 71
3
 72
8
 73
4
 74
0
 40
0
 40
0
 40
0
 40
0
 40
1
 40
1
 40
1
 40
1
 10
4.064811
 20
7.116781
 30
0.0
 10
4.119766
 20
6.888290
 30
0.0
 10
4.147240
 20
6.634159
 30
0.0
 10
4.147240
 20
6.354374
 30
0.0
  0
SPLINE
  5
124
100
AcDbEntity
  8
Layer_1
 62
7
100
AcDbSpline
 70
8
 71
3
 72
8
 73
4
 74
0
 40
0
 40
0
 40
0
 40
0
 40
1
 40
1
 40
1
 40
1
 10
4.147240
 20
6.354374
 30
0.0
 10
4.147240
 20
6.048943
 30
0.0
 10
4.112898
 20
5.765653
 30
0.0
 10
4.044204
 20
5.504521
 30
0.0
  0
SPLINE
  5
125
100
AcDbEntity
  8
Layer_1
 62
7
100
AcDbSpline
 70
8
 71
3
 72
8
 73
4
 74
0
 40
0
 40
0
 40
0
 40
0
 40
1
 40
1
 40
1
 40
1
 10
4.044204
 20
5.504521
 30
0.0
 10
3.977038
 20
5.243389
 30
0.0
 10
3.880110
 20
5.013739
 30
0.0
 10
3.753409
 20
4.815558
 30
0.0
  0
SPLINE
  5
126
100
AcDbEntity
  8
Layer_1
 62
7
100
AcDbSpline
 70
8
 71
3
 72
8
 73
4
 74
0
 40
0
 40
0
 40
0
 40
0
 40
1
 40
1
 40
1
 40
1
 10
3.753409
 20
4.815558
 30
0.0
 10
3.686243
 20
4.712971
 30
0.0
 10
3.614491
 20
4.629036
 30
0.0
 10
3.538166
 20
4.563752
 30
0.0
  0
SPLINE
  5
127
100
AcDbEntity
  8
Layer_1
 62
7
100
AcDbSpline
 70
8
 71
3
 72
8
 73
4
 74
0
 40
0
 40
0
 40
0
 40
0
 40
1
 40
1
 40
1
 40
1
 10
3.538166
 20
4.563752
 30
0.0
 10
3.461840
 20
4.498469
 30
0.0
 10
3.379407
 20
4.451831
 30
0.0
 10
3.290869
 20
4.423853
 30
0.0
  0
SPLINE
  5
128
100
AcDbEntity
  8
Layer_1
 62
7
100
AcDbSpline
 70
8
 71
3
 72
8
 73
4
 74
0
 40
0
 40
0
 40
0
 40
0
 40
1
 40
1
 40
1
 40
1
 10
3.290869
 20
4.423853
 30
0.0
 10
3.202331
 20
4.398206
 30
0.0
 10
3.091667
 20
4.385390
 30
0.0
 10
2.958860
 20
4.385390
 30
0.0
  0
SPLINE
  5
129
100
AcDbEntity
  8
Layer_1
 62
7
100
AcDbSpline
 70
8
 71
3
 72
8
 73
4
 74
0
 40
0
 40
0
 40
0
 40
0
 40
1
 40
1
 40
1
 40
1
 10
2.958860
 20
4.385390
 30
0.0
 10
2.903906
 20
4.385390
 30
0.0
 10
2.854287
 20
4.387717
 30
0.0
 10
2.810018
 20
4.392379
 30
0.0
  0
SPLINE
  5
12a
100
AcDbEntity
  8
Layer_1
 62
7
100
AcDbSpline
 70
8
 71
3
 72
8
 73
4
 74
0
 40
0
 40
0
 40
0
 40
0
 40
1
 40
1
 40
1
 40
1
 10
2.810018
 20
4.392379
 30
0.0
 10
2.863446
 20
4.492635
 30
0.0
 10
2.902371
 20
4.581234
 30
0.0
 10
2.926795
 20
4.658175
 30
0.0
  0
SPLINE
  5
12b
100
AcDbEntity
  8
Layer_1
 62
7
100
AcDbSpline
 70
8
 71
3
 72
8
 73
4
 74
0
 40
0
 40
0
 40
0
 40
0
 40
1
 40
1
 40
1
 40
1
 10
2.926795
 20
4.658175
 30
0.0
 10
2.961905
 20
4.758431
 30
0.0
 10
2.993204
 20
4.900657
 30
0.0
 10
3.020681
 20
5.084848
 30
0.0
  0
SPLINE
  5
12c
100
AcDbEntity
  8
Layer_1
 62
7
100
AcDbSpline
 70
8
 71
3
 72
8
 73
4
 74
0
 40
0
 40
0
 40
0
 40
0
 40
1
 40
1
 40
1
 40
1
 10
3.020681
 20
5.084848
 30
0.0
 10
3.029841
 20
5.154795
 30
0.0
 10
3.035951
 20
5.197931
 30
0.0
 10
3.039004
 20
5.214252
 30
0.0
  0
LWPOLYLINE
  5
12d
100
AcDbEntity
  8
Layer_1
 62
7
100
AcDbPolyline
 90
2
 70
0
 10
3.499157
 20
7.871636
 30
0.0
 10
3.499236
 20
7.872199
 30
0.0
  0
SPLINE
  5
12e
100
AcDbEntity
  8
Layer_1
 62
7
100
AcDbSpline
 70
8
 71
3
 72
8
 73
4
 74
0
 40
0
 40
0
 40
0
 40
0
 40
1
 40
1
 40
1
 40
1
 10
3.434596
 20
7.498864
 30
0.0
 10
3.345789
 20
7.555891
 30
0.0
 10
3.243717
 20
7.548757
 30
0.0
 10
3.159377
 20
7.553520
 30
0.0
  0
SPLINE
  5
12f
100
AcDbEntity
  8
Layer_1
 62
7
100
AcDbSpline
 70
8
 71
3
 72
8
 73
4
 74
0
 40
0
 40
0
 40
0
 40
0
 40
1
 40
1
 40
1
 40
1
 10
3.159377
 20
7.553520
 30
0.0
 10
3.074950
 20
7.558289
 30
0.0
 10
2.972748
 20
7.539227
 30
0.0
 10
2.894985
 20
7.534458
 30
0.0
  0
SPLINE
  5
130
100
AcDbEntity
  8
Layer_1
 62
7
100
AcDbSpline
 70
8
 71
3
 72
8
 73
4
 74
0
 40
0
 40
0
 40
0
 40
0
 40
1
 40
1
 40
1
 40
1
 10
2.894985
 20
7.534458
 30
0.0
 10
2.779452
 20
7.539227
 30
0.0
 10
2.733436
 20
7.495205
 30
0.0
 10
2.659474
 20
7.477234
 30
0.0
  0
SPLINE
  5
131
100
AcDbEntity
  8
Layer_1
 62
7
100
AcDbSpline
 70
8
 71
3
 72
8
 73
4
 74
0
 40
0
 40
0
 40
0
 40
0
 40
1
 40
1
 40
1
 40
1
 10
2.659474
 20
7.477234
 30
0.0
 10
2.596490
 20
7.461930
 30
0.0
 10
2.573978
 20
7.447599
 30
0.0
 10
2.543560
 20
7.426854
 30
0.0
  0
SPLINE
  5
132
100
AcDbEntity
  8
Layer_1
 62
7
100
AcDbSpline
 70
8
 71
3
 72
8
 73
4
 74
0
 40
0
 40
0
 40
0
 40
0
 40
1
 40
1
 40
1
 40
1
 10
2.543560
 20
7.426854
 30
0.0
 10
2.527697
 20
7.361363
 30
0.0
 10
2.511945
 20
7.286089
 30
0.0
 10
2.496319
 20
7.200720
 30
0.0
  0
LWPOLYLINE
  5
133
100
AcDbEntity
  8
Layer_1
 62
7
100
AcDbPolyline
 90
2
 70
0
 10
3.039004
 20
5.214252
 30
0.0
 10
3.434596
 20
7.498864
 30
0.0
  0
SPLINE
  5
134
100
AcDbEntity
  8
Layer_1
 62
7
100
AcDbSpline
 70
8
 71
3
 72
8
 73
4
 74
0
 40
0
 40
0
 40
0
 40
0
 40
1
 40
1
 40
1
 40
1
 10
1.951362
 20
4.392379
 30
0.0
 10
1.945256
 20
4.345748
 30
0.0
 10
1.942201
 20
4.311939
 30
0.0
 10
1.942201
 20
4.290955
 30
0.0
  0
SPLINE
  5
135
100
AcDbEntity
  8
Layer_1
 62
7
100
AcDbSpline
 70
8
 71
3
 72
8
 73
4
 74
0
 40
0
 40
0
 40
0
 40
0
 40
1
 40
1
 40
1
 40
1
 10
1.942201
 20
4.290955
 30
0.0
 10
1.942201
 20
4.259731
 30
0.0
 10
1.944787
 20
4.231431
 30
0.0
 10
1.949928
 20
4.206011
 30
0.0
  0
SPLINE
  5
136
100
AcDbEntity
  8
Layer_1
 62
7
100
AcDbSpline
 70
8
 71
3
 72
8
 73
4
 74
0
 40
0
 40
0
 40
0
 40
0
 40
1
 40
1
 40
1
 40
1
 10
1.949928
 20
4.206011
 30
0.0
 10
1.900896
 20
4.215600
 30
0.0
 10
1.847199
 20
4.220406
 30
0.0
 10
1.788802
 20
4.220406
 30
0.0
  0
SPLINE
  5
137
100
AcDbEntity
  8
Layer_1
 62
7
100
AcDbSpline
 70
8
 71
3
 72
8
 73
4
 74
0
 40
0
 40
0
 40
0
 40
0
 40
1
 40
1
 40
1
 40
1
 10
1.788802
 20
4.220406
 30
0.0
 10
1.684570
 20
4.220406
 30
0.0
 10
1.588005
 20
4.200079
 30
0.0
 10
1.499101
 20
4.159426
 30
0.0
  0
SPLINE
  5
138
100
AcDbEntity
  8
Layer_1
 62
7
100
AcDbSpline
 70
8
 71
3
 72
8
 73
4
 74
0
 40
0
 40
0
 40
0
 40
0
 40
1
 40
1
 40
1
 40
1
 10
1.499101
 20
4.159426
 30
0.0
 10
1.410197
 20
4.120805
 30
0.0
 10
1.365739
 20
4.079135
 30
0.0
 10
1.365739
 20
4.034416
 30
0.0
  0
SPLINE
  5
139
100
AcDbEntity
  8
Layer_1
 62
7
100
AcDbSpline
 70
8
 71
3
 72
8
 73
4
 74
0
 40
0
 40
0
 40
0
 40
0
 40
1
 40
1
 40
1
 40
1
 10
1.365739
 20
4.034416
 30
0.0
 10
1.365739
 20
4.005958
 30
0.0
 10
1.383374
 20
3.972421
 30
0.0
 10
1.418629
 20
3.933800
 30
0.0
  0
SPLINE
  5
13a
100
AcDbEntity
  8
Layer_1
 62
7
100
AcDbSpline
 70
8
 71
3
 72
8
 73
4
 74
0
 40
0
 40
0
 40
0
 40
0
 40
1
 40
1
 40
1
 40
1
 10
1.418629
 20
3.933800
 30
0.0
 10
1.464613
 20
3.880951
 30
0.0
 10
1.487607
 20
3.833184
 30
0.0
 10
1.487607
 20
3.790498
 30
0.0
  0
SPLINE
  5
13b
100
AcDbEntity
  8
Layer_1
 62
7
100
AcDbSpline
 70
8
 71
3
 72
8
 73
4
 74
0
 40
0
 40
0
 40
0
 40
0
 40
1
 40
1
 40
1
 40
1
 10
1.487607
 20
3.790498
 30
0.0
 10
1.487607
 20
3.751877
 30
0.0
 10
1.442384
 20
3.611618
 30
0.0
 10
1.351948
 20
3.369730
 30
0.0
  0
SPLINE
  5
13c
100
AcDbEntity
  8
Layer_1
 62
7
100
AcDbSpline
 70
8
 71
3
 72
8
 73
4
 74
0
 40
0
 40
0
 40
0
 40
0
 40
1
 40
1
 40
1
 40
1
 10
1.351948
 20
3.369730
 30
0.0
 10
1.261511
 20
3.129876
 30
0.0
 10
1.087543
 20
2.682689
 30
0.0
 10
0.830028
 20
2.028169
 30
0.0
  0
LWPOLYLINE
  5
13d
100
AcDbEntity
  8
Layer_1
 62
7
100
AcDbPolyline
 90
2
 70
0
 10
2.496319
 20
7.200720
 30
0.0
 10
1.951362
 20
4.392379
 30
0.0
  0
SPLINE
  5
13e
100
AcDbEntity
  8
Layer_1
 62
7
100
AcDbSpline
 70
8
 71
3
 72
8
 73
4
 74
0
 40
0
 40
0
 40
0
 40
0
 40
1
 40
1
 40
1
 40
1
 10
0.719654
 20
1.753755
 30
0.0
 10
0.552577
 20
1.332993
 30
0.0
 10
0.427661
 20
1.041312
 30
0.0
 10
0.344888
 20
0.878698
 30
0.0
  0
LWPOLYLINE
  5
13f
100
AcDbEntity
  8
Layer_1
 62
7
100
AcDbPolyline
 90
2
 70
0
 10
0.830028
 20
2.028169
 30
0.0
 10
0.719654
 20
1.753755
 30
0.0
  0
SPLINE
  5
140
100
AcDbEntity
  8
Layer_1
 62
7
100
AcDbSpline
 70
8
 71
3
 72
8
 73
4
 74
0
 40
0
 40
0
 40
0
 40
0
 40
1
 40
1
 40
1
 40
1
 10
0.211526
 20
0.604284
 30
0.0
 10
0.134885
 20
0.453867
 30
0.0
 10
0.085069
 20
0.360369
 30
0.0
 10
0.062076
 20
0.323781
 30
0.0
  0
SPLINE
  5
141
100
AcDbEntity
  8
Layer_1
 62
7
100
AcDbSpline
 70
8
 71
3
 72
8
 73
4
 74
0
 40
0
 40
0
 40
0
 40
0
 40
1
 40
1
 40
1
 40
1
 10
0.062076
 20
0.323781
 30
0.0
 10
0.020690
 20
0.266866
 30
0.0
 10
0.000000
 20
0.221123
 30
0.0
 10
0.000000
 20
0.186568
 30
0.0
  0
SPLINE
  5
142
100
AcDbEntity
  8
Layer_1
 62
7
100
AcDbSpline
 70
8
 71
3
 72
8
 73
4
 74
0
 40
0
 40
0
 40
0
 40
0
 40
1
 40
1
 40
1
 40
1
 10
0.000000
 20
0.186568
 30
0.0
 10
0.000000
 20
0.147947
 30
0.0
 10
0.013793
 20
0.116446
 30
0.0
 10
0.041384
 20
0.092054
 30
0.0
  0
SPLINE
  5
143
100
AcDbEntity
  8
Layer_1
 62
7
100
AcDbSpline
 70
8
 71
3
 72
8
 73
4
 74
0
 40
0
 40
0
 40
0
 40
0
 40
1
 40
1
 40
1
 40
1
 10
0.041384
 20
0.092054
 30
0.0
 10
0.068975
 20
0.067661
 30
0.0
 10
0.101167
 20
0.055469
 30
0.0
 10
0.137955
 20
0.055469
 30
0.0
  0
SPLINE
  5
144
100
AcDbEntity
  8
Layer_1
 62
7
100
AcDbSpline
 70
8
 71
3
 72
8
 73
4
 74
0
 40
0
 40
0
 40
0
 40
0
 40
1
 40
1
 40
1
 40
1
 10
0.137955
 20
0.055469
 30
0.0
 10
0.234523
 20
0.055469
 30
0.0
 10
0.336458
 20
0.086970
 30
0.0
 10
0.443756
 20
0.149982
 30
0.0
  0
SPLINE
  5
145
100
AcDbEntity
  8
Layer_1
 62
7
100
AcDbSpline
 70
8
 71
3
 72
8
 73
4
 74
0
 40
0
 40
0
 40
0
 40
0
 40
1
 40
1
 40
1
 40
1
 10
0.443756
 20
0.149982
 30
0.0
 10
0.551054
 20
0.215028
 30
0.0
 10
0.649910
 20
0.304466
 30
0.0
 10
0.740346
 20
0.418295
 30
0.0
  0
SPLINE
  5
146
100
AcDbEntity
  8
Layer_1
 62
7
100
AcDbSpline
 70
8
 71
3
 72
8
 73
4
 74
0
 40
0
 40
0
 40
0
 40
0
 40
1
 40
1
 40
1
 40
1
 10
0.740346
 20
0.418295
 30
0.0
 10
0.798594
 20
0.503667
 30
0.0
 10
0.839222
 20
0.569736
 30
0.0
 10
0.862215
 20
0.616488
 30
0.0
  0
SPLINE
  5
147
100
AcDbEntity
  8
Layer_1
 62
7
100
AcDbSpline
 70
8
 71
3
 72
8
 73
4
 74
0
 40
0
 40
0
 40
0
 40
0
 40
1
 40
1
 40
1
 40
1
 10
0.862215
 20
0.616488
 30
0.0
 10
0.912798
 20
0.716089
 30
0.0
 10
0.958784
 20
0.816701
 30
0.0
 10
1.000170
 20
0.918334
 30
0.0
  0
SPLINE
  5
148
100
AcDbEntity
  8
Layer_1
 62
7
100
AcDbSpline
 70
8
 71
3
 72
8
 73
4
 74
0
 40
0
 40
0
 40
0
 40
0
 40
1
 40
1
 40
1
 40
1
 10
1.000170
 20
0.918334
 30
0.0
 10
1.043089
 20
1.019968
 30
0.0
 10
1.099039
 20
1.165305
 30
0.0
 10
1.168015
 20
1.354344
 30
0.0
  0
SPLINE
  5
149
100
AcDbEntity
  8
Layer_1
 62
7
100
AcDbSpline
 70
8
 71
3
 72
8
 73
4
 74
0
 40
0
 40
0
 40
0
 40
0
 40
1
 40
1
 40
1
 40
1
 10
1.168015
 20
1.354344
 30
0.0
 10
1.236993
 20
1.543381
 30
0.0
 10
1.302893
 20
1.730389
 30
0.0
 10
1.365739
 20
1.915363
 30
0.0
  0
SPLINE
  5
14a
100
AcDbEntity
  8
Layer_1
 62
7
100
AcDbSpline
 70
8
 71
3
 72
8
 73
4
 74
0
 40
0
 40
0
 40
0
 40
0
 40
1
 40
1
 40
1
 40
1
 10
1.365739
 20
1.915363
 30
0.0
 10
1.373403
 20
1.937722
 30
0.0
 10
1.401002
 20
2.019026
 30
0.0
 10
1.448519
 20
2.159281
 30
0.0
  0
SPLINE
  5
14b
100
AcDbEntity
  8
Layer_1
 62
7
100
AcDbSpline
 70
8
 71
3
 72
8
 73
4
 74
0
 40
0
 40
0
 40
0
 40
0
 40
1
 40
1
 40
1
 40
1
 10
1.448519
 20
2.159281
 30
0.0
 10
1.496037
 20
2.299535
 30
0.0
 10
1.531283
 20
2.403202
 30
0.0
 10
1.554276
 20
2.470280
 30
0.0
  0
SPLINE
  5
14c
100
AcDbEntity
  8
Layer_1
 62
7
100
AcDbSpline
 70
8
 71
3
 72
8
 73
4
 74
0
 40
0
 40
0
 40
0
 40
0
 40
1
 40
1
 40
1
 40
1
 10
1.554276
 20
2.470280
 30
0.0
 10
1.577268
 20
2.537358
 30
0.0
 10
1.611764
 20
2.637970
 30
0.0
 10
1.657748
 20
2.772126
 30
0.0
  0
LWPOLYLINE
  5
14d
100
AcDbEntity
  8
Layer_1
 62
7
100
AcDbPolyline
 90
2
 70
0
 10
0.344888
 20
0.878698
 30
0.0
 10
0.211526
 20
0.604284
 30
0.0
  0
SPLINE
  5
14e
100
AcDbEntity
  8
Layer_1
 62
7
100
AcDbSpline
 70
8
 71
3
 72
8
 73
4
 74
0
 40
0
 40
0
 40
0
 40
0
 40
1
 40
1
 40
1
 40
1
 10
1.666946
 20
2.772126
 30
0.0
 10
1.688406
 20
2.404213
 30
0.0
 10
1.712926
 20
2.092194
 30
0.0
 10
1.740517
 20
1.836077
 30
0.0
  0
SPLINE
  5
14f
100
AcDbEntity
  8
Layer_1
 62
7
100
AcDbSpline
 70
8
 71
3
 72
8
 73
4
 74
0
 40
0
 40
0
 40
0
 40
0
 40
1
 40
1
 40
1
 40
1
 10
1.740517
 20
1.836077
 30
0.0
 10
1.769641
 20
1.581994
 30
0.0
 10
1.802597
 20
1.361462
 30
0.0
 10
1.839384
 20
1.174456
 30
0.0
  0
SPLINE
  5
150
100
AcDbEntity
  8
Layer_1
 62
7
100
AcDbSpline
 70
8
 71
3
 72
8
 73
4
 74
0
 40
0
 40
0
 40
0
 40
0
 40
1
 40
1
 40
1
 40
1
 10
1.839384
 20
1.174456
 30
0.0
 10
1.877705
 20
0.989483
 30
0.0
 10
1.926758
 20
0.807553
 30
0.0
 10
1.986537
 20
0.628679
 30
0.0
  0
SPLINE
  5
151
100
AcDbEntity
  8
Layer_1
 62
7
100
AcDbSpline
 70
8
 71
3
 72
8
 73
4
 74
0
 40
0
 40
0
 40
0
 40
0
 40
1
 40
1
 40
1
 40
1
 10
1.986537
 20
0.628679
 30
0.0
 10
2.044785
 20
0.459967
 30
0.0
 10
2.112225
 20
0.321744
 30
0.0
 10
2.188866
 20
0.214013
 30
0.0
  0
SPLINE
  5
152
100
AcDbEntity
  8
Layer_1
 62
7
100
AcDbSpline
 70
8
 71
3
 72
8
 73
4
 74
0
 40
0
 40
0
 40
0
 40
0
 40
1
 40
1
 40
1
 40
1
 10
2.188866
 20
0.214013
 30
0.0
 10
2.267040
 20
0.108314
 30
0.0
 10
2.338322
 20
0.055469
 30
0.0
 10
2.402700
 20
0.055469
 30
0.0
  0
SPLINE
  5
153
100
AcDbEntity
  8
Layer_1
 62
7
100
AcDbSpline
 70
8
 71
3
 72
8
 73
4
 74
0
 40
0
 40
0
 40
0
 40
0
 40
1
 40
1
 40
1
 40
1
 10
2.402700
 20
0.055469
 30
0.0
 10
2.425693
 20
0.055469
 30
0.0
 10
2.453279
 20
0.063602
 30
0.0
 10
2.485469
 20
0.079863
 30
0.0
  0
SPLINE
  5
154
100
AcDbEntity
  8
Layer_1
 62
7
100
AcDbSpline
 70
8
 71
3
 72
8
 73
4
 74
0
 40
0
 40
0
 40
0
 40
0
 40
1
 40
1
 40
1
 40
1
 10
2.485469
 20
0.079863
 30
0.0
 10
2.519191
 20
0.098157
 30
0.0
 10
2.549080
 20
0.123562
 30
0.0
 10
2.575138
 20
0.156084
 30
0.0
  0
SPLINE
  5
155
100
AcDbEntity
  8
Layer_1
 62
7
100
AcDbSpline
 70
8
 71
3
 72
8
 73
4
 74
0
 40
0
 40
0
 40
0
 40
0
 40
1
 40
1
 40
1
 40
1
 10
2.575138
 20
0.156084
 30
0.0
 10
2.582802
 20
0.164215
 30
0.0
 10
2.591239
 20
0.175389
 30
0.0
 10
2.600435
 20
0.189619
 30
0.0
  0
SPLINE
  5
156
100
AcDbEntity
  8
Layer_1
 62
7
100
AcDbSpline
 70
8
 71
3
 72
8
 73
4
 74
0
 40
0
 40
0
 40
0
 40
0
 40
1
 40
1
 40
1
 40
1
 10
2.600435
 20
0.189619
 30
0.0
 10
2.609632
 20
0.203847
 30
0.0
 10
2.615765
 20
0.212999
 30
0.0
 10
2.618831
 20
0.217063
 30
0.0
  0
SPLINE
  5
157
100
AcDbEntity
  8
Layer_1
 62
7
100
AcDbSpline
 70
8
 71
3
 72
8
 73
4
 74
0
 40
0
 40
0
 40
0
 40
0
 40
1
 40
1
 40
1
 40
1
 10
2.618831
 20
0.217063
 30
0.0
 10
2.672480
 20
0.316665
 30
0.0
 10
2.786669
 20
0.606321
 30
0.0
 10
2.961411
 20
1.086031
 30
0.0
  0
SPLINE
  5
158
100
AcDbEntity
  8
Layer_1
 62
7
100
AcDbSpline
 70
8
 71
3
 72
8
 73
4
 74
0
 40
0
 40
0
 40
0
 40
0
 40
1
 40
1
 40
1
 40
1
 10
2.961411
 20
1.086031
 30
0.0
 10
3.016593
 20
1.236449
 30
0.0
 10
3.064106
 20
1.365520
 30
0.0
 10
3.103959
 20
1.473252
 30
0.0
  0
SPLINE
  5
159
100
AcDbEntity
  8
Layer_1
 62
7
100
AcDbSpline
 70
8
 71
3
 72
8
 73
4
 74
0
 40
0
 40
0
 40
0
 40
0
 40
1
 40
1
 40
1
 40
1
 10
3.103959
 20
1.473252
 30
0.0
 10
3.145345
 20
1.580983
 30
0.0
 10
3.198228
 20
1.717169
 30
0.0
 10
3.262607
 20
1.881815
 30
0.0
  0
SPLINE
  5
15a
100
AcDbEntity
  8
Layer_1
 62
7
100
AcDbSpline
 70
8
 71
3
 72
8
 73
4
 74
0
 40
0
 40
0
 40
0
 40
0
 40
1
 40
1
 40
1
 40
1
 10
3.262607
 20
1.881815
 30
0.0
 10
3.326985
 20
2.046461
 30
0.0
 10
3.407467
 20
2.251759
 30
0.0
 10
3.504035
 20
2.497712
 30
0.0
  0
LWPOLYLINE
  5
15b
100
AcDbEntity
  8
Layer_1
 62
7
100
AcDbPolyline
 90
2
 70
0
 10
1.657748
 20
2.772126
 30
0.0
 10
1.666946
 20
2.772126
 30
0.0
  0
SPLINE
  5
15c
100
AcDbEntity
  8
Layer_1
 62
7
100
AcDbSpline
 70
8
 71
3
 72
8
 73
4
 74
0
 40
0
 40
0
 40
0
 40
0
 40
1
 40
1
 40
1
 40
1
 10
3.513232
 20
2.497712
 30
0.0
 10
3.514764
 20
2.457059
 30
0.0
 10
3.520886
 20
2.278183
 30
0.0
 10
3.531616
 20
1.961087
 30
0.0
  0
SPLINE
  5
15d
100
AcDbEntity
  8
Layer_1
 62
7
100
AcDbSpline
 70
8
 71
3
 72
8
 73
4
 74
0
 40
0
 40
0
 40
0
 40
0
 40
1
 40
1
 40
1
 40
1
 10
3.531616
 20
1.961087
 30
0.0
 10
3.539280
 20
1.668383
 30
0.0
 10
3.554613
 20
1.426506
 30
0.0
 10
3.577605
 20
1.235435
 30
0.0
  0
SPLINE
  5
15e
100
AcDbEntity
  8
Layer_1
 62
7
100
AcDbSpline
 70
8
 71
3
 72
8
 73
4
 74
0
 40
0
 40
0
 40
0
 40
0
 40
1
 40
1
 40
1
 40
1
 10
3.577605
 20
1.235435
 30
0.0
 10
3.600597
 20
1.046397
 30
0.0
 10
3.635081
 20
0.886830
 30
0.0
 10
3.681066
 20
0.756739
 30
0.0
  0
SPLINE
  5
15f
100
AcDbEntity
  8
Layer_1
 62
7
100
AcDbSpline
 70
8
 71
3
 72
8
 73
4
 74
0
 40
0
 40
0
 40
0
 40
0
 40
1
 40
1
 40
1
 40
1
 10
3.681066
 20
0.756739
 30
0.0
 10
3.728583
 20
0.628681
 30
0.0
 10
3.792205
 20
0.511803
 30
0.0
 10
3.871911
 20
0.406104
 30
0.0
  0
SPLINE
  5
160
100
AcDbEntity
  8
Layer_1
 62
7
100
AcDbSpline
 70
8
 71
3
 72
8
 73
4
 74
0
 40
0
 40
0
 40
0
 40
0
 40
1
 40
1
 40
1
 40
1
 10
3.871911
 20
0.406104
 30
0.0
 10
3.965640
 20
0.275718
 30
0.0
 10
4.065712
 20
0.184459
 30
0.0
 10
4.172111
 20
0.132237
 30
0.0
  0
SPLINE
  5
161
100
AcDbEntity
  8
Layer_1
 62
7
100
AcDbSpline
 70
8
 71
3
 72
8
 73
4
 74
0
 40
0
 40
0
 40
0
 40
0
 40
1
 40
1
 40
1
 40
1
 10
4.172111
 20
0.132237
 30
0.0
 10
4.570052
 20
-0.175481
 30
0.0
 10
5.203113
 20
0.139955
 30
0.0
 10
5.343577
 20
0.216633
 30
0.0
  0
SPLINE
  5
162
100
AcDbEntity
  8
Layer_1
 62
7
100
AcDbSpline
 70
8
 71
3
 72
8
 73
4
 74
0
 40
0
 40
0
 40
0
 40
0
 40
1
 40
1
 40
1
 40
1
 10
5.343577
 20
0.216633
 30
0.0
 10
5.366022
 20
0.202418
 30
0.0
 10
5.389079
 20
0.188789
 30
0.0
 10
5.412907
 20
0.175928
 30
0.0
  0
SPLINE
  5
163
100
AcDbEntity
  8
Layer_1
 62
7
100
AcDbSpline
 70
8
 71
3
 72
8
 73
4
 74
0
 40
0
 40
0
 40
0
 40
0
 40
1
 40
1
 40
1
 40
1
 10
5.412907
 20
0.175928
 30
0.0
 10
5.567322
 20
0.092589
 30
0.0
 10
5.723157
 20
0.050931
 30
0.0
 10
5.880405
 20
0.050931
 30
0.0
  0
SPLINE
  5
164
100
AcDbEntity
  8
Layer_1
 62
7
100
AcDbSpline
 70
8
 71
3
 72
8
 73
4
 74
0
 40
0
 40
0
 40
0
 40
0
 40
1
 40
1
 40
1
 40
1
 10
5.880405
 20
0.050931
 30
0.0
 10
6.153819
 20
0.050931
 30
0.0
 10
6.407393
 20
0.168815
 30
0.0
 10
6.641140
 20
0.404605
 30
0.0
  0
SPLINE
  5
165
100
AcDbEntity
  8
Layer_1
 62
7
100
AcDbSpline
 70
8
 71
3
 72
8
 73
4
 74
0
 40
0
 40
0
 40
0
 40
0
 40
1
 40
1
 40
1
 40
1
 10
6.641140
 20
0.404605
 30
0.0
 10
6.745527
 20
0.510172
 30
0.0
 10
6.840125
 20
0.632202
 30
0.0
 10
6.924973
 20
0.770612
 30
0.0
  0
SPLINE
  5
166
100
AcDbEntity
  8
Layer_1
 62
7
100
AcDbSpline
 70
8
 71
3
 72
8
 73
4
 74
0
 40
0
 40
0
 40
0
 40
0
 40
1
 40
1
 40
1
 40
1
 10
6.924973
 20
0.770612
 30
0.0
 10
7.027305
 20
0.433336
 30
0.0
 10
7.103559
 20
0.380706
 30
0.0
 10
7.103559
 20
0.380706
 30
0.0
  0
SPLINE
  5
167
100
AcDbEntity
  8
Layer_1
 62
7
100
AcDbSpline
 70
8
 71
3
 72
8
 73
4
 74
0
 40
0
 40
0
 40
0
 40
0
 40
1
 40
1
 40
1
 40
1
 10
7.103559
 20
0.380706
 30
0.0
 10
7.192301
 20
0.156765
 30
0.0
 10
7.393824
 20
0.072172
 30
0.0
 10
7.531131
 20
0.077347
 30
0.0
  0
SPLINE
  5
168
100
AcDbEntity
  8
Layer_1
 62
7
100
AcDbSpline
 70
8
 71
3
 72
8
 73
4
 74
0
 40
0
 40
0
 40
0
 40
0
 40
1
 40
1
 40
1
 40
1
 10
7.531131
 20
0.077347
 30
0.0
 10
7.539768
 20
0.075536
 30
0.0
 10
7.548690
 20
0.074544
 30
0.0
 10
7.557959
 20
0.074544
 30
0.0
  0
SPLINE
  5
169
100
AcDbEntity
  8
Layer_1
 62
7
100
AcDbSpline
 70
8
 71
3
 72
8
 73
4
 74
0
 40
0
 40
0
 40
0
 40
0
 40
1
 40
1
 40
1
 40
1
 10
7.557959
 20
0.074544
 30
0.0
 10
7.647208
 20
0.074544
 30
0.0
 10
7.741411
 20
0.106045
 30
0.0
 10
7.840577
 20
0.169057
 30
0.0
  0
SPLINE
  5
16a
100
AcDbEntity
  8
Layer_1
 62
7
100
AcDbSpline
 70
8
 71
3
 72
8
 73
4
 74
0
 40
0
 40
0
 40
0
 40
0
 40
1
 40
1
 40
1
 40
1
 10
7.840577
 20
0.169057
 30
0.0
 10
7.939742
 20
0.234103
 30
0.0
 10
8.031120
 20
0.323541
 30
0.0
 10
8.114701
 20
0.437370
 30
0.0
  0
SPLINE
  5
16b
100
AcDbEntity
  8
Layer_1
 62
7
100
AcDbSpline
 70
8
 71
3
 72
8
 73
4
 74
0
 40
0
 40
0
 40
0
 40
0
 40
1
 40
1
 40
1
 40
1
 10
8.114701
 20
0.437370
 30
0.0
 10
8.168533
 20
0.522742
 30
0.0
 10
8.206074
 20
0.588798
 30
0.0
 10
8.227323
 20
0.635550
 30
0.0
  0
SPLINE
  5
16c
100
AcDbEntity
  8
Layer_1
 62
7
100
AcDbSpline
 70
8
 71
3
 72
8
 73
4
 74
0
 40
0
 40
0
 40
0
 40
0
 40
1
 40
1
 40
1
 40
1
 10
8.227323
 20
0.635550
 30
0.0
 10
8.274072
 20
0.735150
 30
0.0
 10
8.316580
 20
0.835776
 30
0.0
 10
8.354830
 20
0.937410
 30
0.0
  0
SPLINE
  5
16d
100
AcDbEntity
  8
Layer_1
 62
7
100
AcDbSpline
 70
8
 71
3
 72
8
 73
4
 74
0
 40
0
 40
0
 40
0
 40
0
 40
1
 40
1
 40
1
 40
1
 10
8.354830
 20
0.937410
 30
0.0
 10
8.394495
 20
1.039042
 30
0.0
 10
8.446192
 20
1.184380
 30
0.0
 10
8.509941
 20
1.373419
 30
0.0
  0
SPLINE
  5
16e
100
AcDbEntity
  8
Layer_1
 62
7
100
AcDbSpline
 70
8
 71
3
 72
8
 73
4
 74
0
 40
0
 40
0
 40
0
 40
0
 40
1
 40
1
 40
1
 40
1
 10
8.509941
 20
1.373419
 30
0.0
 10
8.573690
 20
1.562457
 30
0.0
 10
8.634612
 20
1.749452
 30
0.0
 10
8.692694
 20
1.934425
 30
0.0
  0
SPLINE
  5
16f
100
AcDbEntity
  8
Layer_1
 62
7
100
AcDbSpline
 70
8
 71
3
 72
8
 73
4
 74
0
 40
0
 40
0
 40
0
 40
0
 40
1
 40
1
 40
1
 40
1
 10
8.692694
 20
1.934425
 30
0.0
 10
8.699778
 20
1.956784
 30
0.0
 10
8.725277
 20
2.038102
 30
0.0
 10
8.769194
 20
2.178356
 30
0.0
  0
SPLINE
  5
170
100
AcDbEntity
  8
Layer_1
 62
7
100
AcDbSpline
 70
8
 71
3
 72
8
 73
4
 74
0
 40
0
 40
0
 40
0
 40
0
 40
1
 40
1
 40
1
 40
1
 10
8.769194
 20
2.178356
 30
0.0
 10
8.813109
 20
2.318609
 30
0.0
 10
8.845694
 20
2.422277
 30
0.0
 10
8.866943
 20
2.489355
 30
0.0
  0
SPLINE
  5
171
100
AcDbEntity
  8
Layer_1
 62
7
100
AcDbSpline
 70
8
 71
3
 72
8
 73
4
 74
0
 40
0
 40
0
 40
0
 40
0
 40
1
 40
1
 40
1
 40
1
 10
8.866943
 20
2.489355
 30
0.0
 10
8.888193
 20
2.556433
 30
0.0
 10
8.920067
 20
2.657045
 30
0.0
 10
8.962567
 20
2.791202
 30
0.0
  0
LWPOLYLINE
  5
172
100
AcDbEntity
  8
Layer_1
 62
7
100
AcDbPolyline
 90
2
 70
0
 10
3.504035
 20
2.497712
 30
0.0
 10
3.513232
 20
2.497712
 30
0.0
  0
SPLINE
  5
173
100
AcDbEntity
  8
Layer_1
 62
7
100
AcDbSpline
 70
8
 71
3
 72
8
 73
4
 74
0
 40
0
 40
0
 40
0
 40
0
 40
1
 40
1
 40
1
 40
1
 10
8.971072
 20
2.791202
 30
0.0
 10
8.990906
 20
2.423289
 30
0.0
 10
9.013566
 20
2.111269
 30
0.0
 10
9.039065
 20
1.855153
 30
0.0
  0
SPLINE
  5
174
100
AcDbEntity
  8
Layer_1
 62
7
100
AcDbSpline
 70
8
 71
3
 72
8
 73
4
 74
0
 40
0
 40
0
 40
0
 40
0
 40
1
 40
1
 40
1
 40
1
 10
9.039065
 20
1.855153
 30
0.0
 10
9.065981
 20
1.601069
 30
0.0
 10
9.096436
 20
1.380524
 30
0.0
 10
9.130436
 20
1.193518
 30
0.0
  0
SPLINE
  5
175
100
AcDbEntity
  8
Layer_1
 62
7
100
AcDbSpline
 70
8
 71
3
 72
8
 73
4
 74
0
 40
0
 40
0
 40
0
 40
0
 40
1
 40
1
 40
1
 40
1
 10
9.130436
 20
1.193518
 30
0.0
 10
9.165853
 20
1.008545
 30
0.0
 10
9.211186
 20
0.826629
 30
0.0
 10
9.266436
 20
0.647754
 30
0.0
  0
SPLINE
  5
176
100
AcDbEntity
  8
Layer_1
 62
7
100
AcDbSpline
 70
8
 71
3
 72
8
 73
4
 74
0
 40
0
 40
0
 40
0
 40
0
 40
1
 40
1
 40
1
 40
1
 10
9.266436
 20
0.647754
 30
0.0
 10
9.320268
 20
0.479042
 30
0.0
 10
9.382597
 20
0.340820
 30
0.0
 10
9.453430
 20
0.233088
 30
0.0
  0
SPLINE
  5
177
100
AcDbEntity
  8
Layer_1
 62
7
100
AcDbSpline
 70
8
 71
3
 72
8
 73
4
 74
0
 40
0
 40
0
 40
0
 40
0
 40
1
 40
1
 40
1
 40
1
 10
9.453430
 20
0.233088
 30
0.0
 10
9.525679
 20
0.127389
 30
0.0
 10
9.591557
 20
0.074544
 30
0.0
 10
9.651055
 20
0.074544
 30
0.0
  0
SPLINE
  5
178
100
AcDbEntity
  8
Layer_1
 62
7
100
AcDbSpline
 70
8
 71
3
 72
8
 73
4
 74
0
 40
0
 40
0
 40
0
 40
0
 40
1
 40
1
 40
1
 40
1
 10
9.651055
 20
0.074544
 30
0.0
 10
9.672306
 20
0.074544
 30
0.0
 10
9.697805
 20
0.082664
 30
0.0
 10
9.727554
 20
0.098926
 30
0.0
  0
SPLINE
  5
179
100
AcDbEntity
  8
Layer_1
 62
7
100
AcDbSpline
 70
8
 71
3
 72
8
 73
4
 74
0
 40
0
 40
0
 40
0
 40
0
 40
1
 40
1
 40
1
 40
1
 10
9.727554
 20
0.098926
 30
0.0
 10
9.758720
 20
0.117219
 30
0.0
 10
9.786349
 20
0.142637
 30
0.0
 10
9.810432
 20
0.175159
 30
0.0
  0
SPLINE
  5
17a
100
AcDbEntity
  8
Layer_1
 62
7
100
AcDbSpline
 70
8
 71
3
 72
8
 73
4
 74
0
 40
0
 40
0
 40
0
 40
0
 40
1
 40
1
 40
1
 40
1
 10
9.810432
 20
0.175159
 30
0.0
 10
9.817515
 20
0.183290
 30
0.0
 10
9.825310
 20
0.194465
 30
0.0
 10
9.833809
 20
0.208693
 30
0.0
  0
SPLINE
  5
17b
100
AcDbEntity
  8
Layer_1
 62
7
100
AcDbSpline
 70
8
 71
3
 72
8
 73
4
 74
0
 40
0
 40
0
 40
0
 40
0
 40
1
 40
1
 40
1
 40
1
 10
9.833809
 20
0.208693
 30
0.0
 10
9.842309
 20
0.222922
 30
0.0
 10
9.847974
 20
0.232074
 30
0.0
 10
9.850808
 20
0.236139
 30
0.0
  0
SPLINE
  5
17c
100
AcDbEntity
  8
Layer_1
 62
7
100
AcDbSpline
 70
8
 71
3
 72
8
 73
4
 74
0
 40
0
 40
0
 40
0
 40
0
 40
1
 40
1
 40
1
 40
1
 10
9.850808
 20
0.236139
 30
0.0
 10
9.900390
 20
0.335740
 30
0.0
 10
10.005924
 20
0.625396
 30
0.0
 10
10.167422
 20
1.105106
 30
0.0
  0
SPLINE
  5
17d
100
AcDbEntity
  8
Layer_1
 62
7
100
AcDbSpline
 70
8
 71
3
 72
8
 73
4
 74
0
 40
0
 40
0
 40
0
 40
0
 40
1
 40
1
 40
1
 40
1
 10
10.167422
 20
1.105106
 30
0.0
 10
10.218422
 20
1.255524
 30
0.0
 10
10.262348
 20
1.384596
 30
0.0
 10
10.299181
 20
1.492327
 30
0.0
  0
SPLINE
  5
17e
100
AcDbEntity
  8
Layer_1
 62
7
100
AcDbSpline
 70
8
 71
3
 72
8
 73
4
 74
0
 40
0
 40
0
 40
0
 40
0
 40
1
 40
1
 40
1
 40
1
 10
10.299181
 20
1.492327
 30
0.0
 10
10.337431
 20
1.600058
 30
0.0
 10
10.386300
 20
1.736244
 30
0.0
 10
10.445800
 20
1.900891
 30
0.0
  0
SPLINE
  5
17f
100
AcDbEntity
  8
Layer_1
 62
7
100
AcDbSpline
 70
8
 71
3
 72
8
 73
4
 74
0
 40
0
 40
0
 40
0
 40
0
 40
1
 40
1
 40
1
 40
1
 10
10.445800
 20
1.900891
 30
0.0
 10
10.505299
 20
2.065537
 30
0.0
 10
10.579668
 20
2.270835
 30
0.0
 10
10.668917
 20
2.516787
 30
0.0
  0
LWPOLYLINE
  5
180
100
AcDbEntity
  8
Layer_1
 62
7
100
AcDbPolyline
 90
2
 70
0
 10
8.962567
 20
2.791202
 30
0.0
 10
8.971072
 20
2.791202
 30
0.0
  0
SPLINE
  5
181
100
AcDbEntity
  8
Layer_1
 62
7
100
AcDbSpline
 70
8
 71
3
 72
8
 73
4
 74
0
 40
0
 40
0
 40
0
 40
0
 40
1
 40
1
 40
1
 40
1
 10
10.677422
 20
2.516787
 30
0.0
 10
10.678835
 20
2.476134
 30
0.0
 10
10.684504
 20
2.297259
 30
0.0
 10
10.694420
 20
1.980162
 30
0.0
  0
SPLINE
  5
182
100
AcDbEntity
  8
Layer_1
 62
7
100
AcDbSpline
 70
8
 71
3
 72
8
 73
4
 74
0
 40
0
 40
0
 40
0
 40
0
 40
1
 40
1
 40
1
 40
1
 10
10.694420
 20
1.980162
 30
0.0
 10
10.701504
 20
1.687458
 30
0.0
 10
10.715672
 20
1.445567
 30
0.0
 10
10.736922
 20
1.254498
 30
0.0
  0
SPLINE
  5
183
100
AcDbEntity
  8
Layer_1
 62
7
100
AcDbSpline
 70
8
 71
3
 72
8
 73
4
 74
0
 40
0
 40
0
 40
0
 40
0
 40
1
 40
1
 40
1
 40
1
 10
10.736922
 20
1.254498
 30
0.0
 10
10.758172
 20
1.065459
 30
0.0
 10
10.790046
 20
0.905905
 30
0.0
 10
10.832546
 20
0.775815
 30
0.0
  0
SPLINE
  5
184
100
AcDbEntity
  8
Layer_1
 62
7
100
AcDbSpline
 70
8
 71
3
 72
8
 73
4
 74
0
 40
0
 40
0
 40
0
 40
0
 40
1
 40
1
 40
1
 40
1
 10
10.832546
 20
0.775815
 30
0.0
 10
10.876462
 20
0.647756
 30
0.0
 10
10.935255
 20
0.530878
 30
0.0
 10
11.008920
 20
0.425179
 30
0.0
  0
SPLINE
  5
185
100
AcDbEntity
  8
Layer_1
 62
7
100
AcDbSpline
 70
8
 71
3
 72
8
 73
4
 74
0
 40
0
 40
0
 40
0
 40
0
 40
1
 40
1
 40
1
 40
1
 10
11.008920
 20
0.425179
 30
0.0
 10
11.153419
 20
0.207683
 30
0.0
 10
11.314210
 20
0.098926
 30
0.0
 10
11.491291
 20
0.098926
 30
0.0
  0
SPLINE
  5
186
100
AcDbEntity
  8
Layer_1
 62
7
100
AcDbSpline
 70
8
 71
3
 72
8
 73
4
 74
0
 40
0
 40
0
 40
0
 40
0
 40
1
 40
1
 40
1
 40
1
 10
11.491291
 20
0.098926
 30
0.0
 10
11.617372
 20
0.098926
 30
0.0
 10
11.743450
 20
0.186339
 30
0.0
 10
11.869532
 20
0.361149
 30
0.0
  0
SPLINE
  5
187
100
AcDbEntity
  8
Layer_1
 62
7
100
AcDbSpline
 70
8
 71
3
 72
8
 73
4
 74
0
 40
0
 40
0
 40
0
 40
0
 40
1
 40
1
 40
1
 40
1
 10
11.869532
 20
0.361149
 30
0.0
 10
11.944615
 20
0.468880
 30
0.0
 10
11.982154
 20
0.554244
 30
0.0
 10
11.982154
 20
0.617258
 30
0.0
  0
SPLINE
  5
188
100
AcDbEntity
  8
Layer_1
 62
7
100
AcDbSpline
 70
8
 71
3
 72
8
 73
4
 74
0
 40
0
 40
0
 40
0
 40
0
 40
1
 40
1
 40
1
 40
1
 10
11.982154
 20
0.617258
 30
0.0
 10
11.982154
 20
0.651813
 30
0.0
 10
11.959493
 20
0.701617
 30
0.0
 10
11.914160
 20
0.766662
 30
0.0
  0
SPLINE
  5
189
100
AcDbEntity
  8
Layer_1
 62
7
100
AcDbSpline
 70
8
 71
3
 72
8
 73
4
 74
0
 40
0
 40
0
 40
0
 40
0
 40
1
 40
1
 40
1
 40
1
 10
11.914160
 20
0.766662
 30
0.0
 10
11.877328
 20
0.815446
 30
0.0
 10
11.831994
 20
0.892691
 30
0.0
 10
11.778161
 20
0.998389
 30
0.0
  0
SPLINE
  5
18a
100
AcDbEntity
  8
Layer_1
 62
7
100
AcDbSpline
 70
8
 71
3
 72
8
 73
4
 74
0
 40
0
 40
0
 40
0
 40
0
 40
1
 40
1
 40
1
 40
1
 10
11.778161
 20
0.998389
 30
0.0
 10
11.732828
 20
1.093924
 30
0.0
 10
11.685366
 20
1.231129
 30
0.0
 10
11.635783
 20
1.410004
 30
0.0
  0
SPLINE
  5
18b
100
AcDbEntity
  8
Layer_1
 62
7
100
AcDbSpline
 70
8
 71
3
 72
8
 73
4
 74
0
 40
0
 40
0
 40
0
 40
0
 40
1
 40
1
 40
1
 40
1
 10
11.635783
 20
1.410004
 30
0.0
 10
11.589035
 20
1.611238
 30
0.0
 10
11.553623
 20
1.809421
 30
0.0
 10
11.529540
 20
2.004557
 30
0.0
  0
SPLINE
  5
18c
100
AcDbEntity
  8
Layer_1
 62
7
100
AcDbSpline
 70
8
 71
3
 72
8
 73
4
 74
0
 40
0
 40
0
 40
0
 40
0
 40
1
 40
1
 40
1
 40
1
 10
11.529540
 20
2.004557
 30
0.0
 10
11.492707
 20
2.354176
 30
0.0
 10
11.474280
 20
2.724119
 30
0.0
 10
11.474280
 20
3.114391
 30
0.0
  0
SPLINE
  5
18d
100
AcDbEntity
  8
Layer_1
 62
7
100
AcDbSpline
 70
8
 71
3
 72
8
 73
4
 74
0
 40
0
 40
0
 40
0
 40
0
 40
1
 40
1
 40
1
 40
1
 10
11.474280
 20
3.114391
 30
0.0
 10
11.474280
 20
3.268874
 30
0.0
 10
11.479957
 20
3.529054
 30
0.0
 10
11.491291
 20
3.894934
 30
0.0
  0
SPLINE
  5
18e
100
AcDbEntity
  8
Layer_1
 62
7
100
AcDbSpline
 70
8
 71
3
 72
8
 73
4
 74
0
 40
0
 40
0
 40
0
 40
0
 40
1
 40
1
 40
1
 40
1
 10
11.491291
 20
3.894934
 30
0.0
 10
11.494122
 20
3.957947
 30
0.0
 10
11.495531
 20
4.016902
 30
0.0
 10
11.495531
 20
4.071784
 30
0.0
  0
SPLINE
  5
18f
100
AcDbEntity
  8
Layer_1
 62
7
100
AcDbSpline
 70
8
 71
3
 72
8
 73
4
 74
0
 40
0
 40
0
 40
0
 40
0
 40
1
 40
1
 40
1
 40
1
 10
11.495531
 20
4.071784
 30
0.0
 10
11.495531
 20
4.142927
 30
0.0
 10
11.484201
 20
4.188657
 30
0.0
 10
11.461535
 20
4.208984
 30
0.0
  0
SPLINE
  5
190
100
AcDbEntity
  8
Layer_1
 62
7
100
AcDbSpline
 70
8
 71
3
 72
8
 73
4
 74
0
 40
0
 40
0
 40
0
 40
0
 40
1
 40
1
 40
1
 40
1
 10
11.461535
 20
4.208984
 30
0.0
 10
11.440285
 20
4.229311
 30
0.0
 10
11.387867
 20
4.239480
 30
0.0
 10
11.304284
 20
4.239480
 30
0.0
  0
SPLINE
  5
191
100
AcDbEntity
  8
Layer_1
 62
7
100
AcDbSpline
 70
8
 71
3
 72
8
 73
4
 74
0
 40
0
 40
0
 40
0
 40
0
 40
1
 40
1
 40
1
 40
1
 10
11.304284
 20
4.239480
 30
0.0
 10
11.171099
 20
4.239480
 30
0.0
 10
11.058202
 20
4.217995
 30
0.0
 10
10.965483
 20
4.175137
 30
0.0
  0
SPLINE
  5
192
100
AcDbEntity
  8
Layer_1
 62
7
100
AcDbSpline
 70
8
 71
3
 72
8
 73
4
 74
0
 40
0
 40
0
 40
0
 40
0
 40
1
 40
1
 40
1
 40
1
 10
10.965483
 20
4.175137
 30
0.0
 10
11.083141
 20
4.386466
 30
0.0
 10
11.203635
 20
4.682914
 30
0.0
 10
11.326969
 20
5.064627
 30
0.0
  0
SPLINE
  5
193
100
AcDbEntity
  8
Layer_1
 62
7
100
AcDbSpline
 70
8
 71
3
 72
8
 73
4
 74
0
 40
0
 40
0
 40
0
 40
0
 40
1
 40
1
 40
1
 40
1
 10
11.326969
 20
5.064627
 30
0.0
 10
11.486158
 20
5.557308
 30
0.0
 10
11.621713
 20
6.100680
 30
0.0
 10
11.733618
 20
6.694736
 30
0.0
  0
SPLINE
  5
194
100
AcDbEntity
  8
Layer_1
 62
7
100
AcDbSpline
 70
8
 71
3
 72
8
 73
4
 74
0
 40
0
 40
0
 40
0
 40
0
 40
1
 40
1
 40
1
 40
1
 10
11.733618
 20
6.694736
 30
0.0
 10
11.743074
 20
6.773808
 30
0.0
 10
11.747797
 20
6.818422
 30
0.0
 10
11.747797
 20
6.828560
 30
0.0
  0
SPLINE
  5
195
100
AcDbEntity
  8
Layer_1
 62
7
100
AcDbSpline
 70
8
 71
3
 72
8
 73
4
 74
0
 40
0
 40
0
 40
0
 40
0
 40
1
 40
1
 40
1
 40
1
 10
11.747797
 20
6.828560
 30
0.0
 10
11.747797
 20
6.952237
 30
0.0
 10
11.699728
 20
7.014067
 30
0.0
 10
11.603585
 20
7.014067
 30
0.0
  0
SPLINE
  5
196
100
AcDbEntity
  8
Layer_1
 62
7
100
AcDbSpline
 70
8
 71
3
 72
8
 73
4
 74
0
 40
0
 40
0
 40
0
 40
0
 40
1
 40
1
 40
1
 40
1
 10
11.603585
 20
7.014067
 30
0.0
 10
11.521626
 20
7.014067
 30
0.0
 10
11.405780
 20
6.982640
 30
0.0
 10
11.256047
 20
6.919788
 30
0.0
  0
SPLINE
  5
197
100
AcDbEntity
  8
Layer_1
 62
7
100
AcDbSpline
 70
8
 71
3
 72
8
 73
4
 74
0
 40
0
 40
0
 40
0
 40
0
 40
1
 40
1
 40
1
 40
1
 10
11.256047
 20
6.919788
 30
0.0
 10
11.107891
 20
6.858963
 30
0.0
 10
10.984954
 20
6.789011
 30
0.0
 10
10.887235
 20
6.709939
 30
0.0
  0
SPLINE
  5
198
100
AcDbEntity
  8
Layer_1
 62
7
100
AcDbSpline
 70
8
 71
3
 72
8
 73
4
 74
0
 40
0
 40
0
 40
0
 40
0
 40
1
 40
1
 40
1
 40
1
 10
10.887235
 20
6.709939
 30
0.0
 10
10.850984
 20
6.681554
 30
0.0
 10
10.822611
 20
6.649117
 30
0.0
 10
10.802121
 20
6.612622
 30
0.0
  0
SPLINE
  5
199
100
AcDbEntity
  8
Layer_1
 62
7
100
AcDbSpline
 70
8
 71
3
 72
8
 73
4
 74
0
 40
0
 40
0
 40
0
 40
0
 40
1
 40
1
 40
1
 40
1
 10
10.802121
 20
6.612622
 30
0.0
 10
10.783208
 20
6.578154
 30
0.0
 10
10.745378
 20
6.496038
 30
0.0
 10
10.688637
 20
6.366279
 30
0.0
  0
SPLINE
  5
19a
100
AcDbEntity
  8
Layer_1
 62
7
100
AcDbSpline
 70
8
 71
3
 72
8
 73
4
 74
0
 40
0
 40
0
 40
0
 40
0
 40
1
 40
1
 40
1
 40
1
 10
10.688637
 20
6.366279
 30
0.0
 10
10.508959
 20
5.897928
 30
0.0
 10
10.347410
 20
5.663756
 30
0.0
 10
10.203983
 20
5.663756
 30
0.0
  0
SPLINE
  5
19b
100
AcDbEntity
  8
Layer_1
 62
7
100
AcDbSpline
 70
8
 71
3
 72
8
 73
4
 74
0
 40
0
 40
0
 40
0
 40
0
 40
1
 40
1
 40
1
 40
1
 10
10.203983
 20
5.663756
 30
0.0
 10
10.120448
 20
5.663756
 30
0.0
 10
10.052671
 20
5.713435
 30
0.0
 10
10.000658
 20
5.812782
 30
0.0
  0
SPLINE
  5
19c
100
AcDbEntity
  8
Layer_1
 62
7
100
AcDbSpline
 70
8
 71
3
 72
8
 73
4
 74
0
 40
0
 40
0
 40
0
 40
0
 40
1
 40
1
 40
1
 40
1
 10
10.000658
 20
5.812782
 30
0.0
 10
9.948646
 20
5.914157
 30
0.0
 10
9.922641
 20
6.042895
 30
0.0
 10
9.922641
 20
6.199012
 30
0.0
  0
SPLINE
  5
19d
100
AcDbEntity
  8
Layer_1
 62
7
100
AcDbSpline
 70
8
 71
3
 72
8
 73
4
 74
0
 40
0
 40
0
 40
0
 40
0
 40
1
 40
1
 40
1
 40
1
 10
9.922641
 20
6.199012
 30
0.0
 10
9.922641
 20
6.363239
 30
0.0
 10
9.940763
 20
6.543689
 30
0.0
 10
9.977013
 20
6.740357
 30
0.0
  0
SPLINE
  5
19e
100
AcDbEntity
  8
Layer_1
 62
7
100
AcDbSpline
 70
8
 71
3
 72
8
 73
4
 74
0
 40
0
 40
0
 40
0
 40
0
 40
1
 40
1
 40
1
 40
1
 10
9.977013
 20
6.740357
 30
0.0
 10
10.014841
 20
6.937023
 30
0.0
 10
10.066070
 20
7.131658
 30
0.0
 10
10.130692
 20
7.324270
 30
0.0
  0
SPLINE
  5
19f
100
AcDbEntity
  8
Layer_1
 62
7
100
AcDbSpline
 70
8
 71
3
 72
8
 73
4
 74
0
 40
0
 40
0
 40
0
 40
0
 40
1
 40
1
 40
1
 40
1
 10
10.130692
 20
7.324270
 30
0.0
 10
10.196888
 20
7.516883
 30
0.0
 10
10.268596
 20
7.683148
 30
0.0
 10
10.345826
 20
7.823046
 30
0.0
  0
SPLINE
  5
1a0
100
AcDbEntity
  8
Layer_1
 62
7
100
AcDbSpline
 70
8
 71
3
 72
8
 73
4
 74
0
 40
0
 40
0
 40
0
 40
0
 40
1
 40
1
 40
1
 40
1
 10
10.345826
 20
7.823046
 30
0.0
 10
10.430937
 20
7.983218
 30
0.0
 10
10.539693
 20
8.131218
 30
0.0
 10
10.672088
 20
8.267060
 30
0.0
  0
SPLINE
  5
1a1
100
AcDbEntity
  8
Layer_1
 62
7
100
AcDbSpline
 70
8
 71
3
 72
8
 73
4
 74
0
 40
0
 40
0
 40
0
 40
0
 40
1
 40
1
 40
1
 40
1
 10
10.672088
 20
8.267060
 30
0.0
 10
10.806059
 20
8.402902
 30
0.0
 10
10.910080
 20
8.470820
 30
0.0
 10
10.984159
 20
8.470820
 30
0.0
  0
SPLINE
  5
1a2
100
AcDbEntity
  8
Layer_1
 62
7
100
AcDbSpline
 70
8
 71
3
 72
8
 73
4
 74
0
 40
0
 40
0
 40
0
 40
0
 40
1
 40
1
 40
1
 40
1
 10
10.984159
 20
8.470820
 30
0.0
 10
11.015681
 20
8.470820
 30
0.0
 10
11.031448
 20
8.385673
 30
0.0
 10
11.031448
 20
8.215364
 30
0.0
  0
SPLINE
  5
1a3
100
AcDbEntity
  8
Layer_1
 62
7
100
AcDbSpline
 70
8
 71
3
 72
8
 73
4
 74
0
 40
0
 40
0
 40
0
 40
0
 40
1
 40
1
 40
1
 40
1
 10
11.031448
 20
8.215364
 30
0.0
 10
11.031448
 20
8.120071
 30
0.0
 10
11.018841
 20
7.983211
 30
0.0
 10
10.993623
 20
7.804792
 30
0.0
  0
SPLINE
  5
1a4
100
AcDbEntity
  8
Layer_1
 62
7
100
AcDbSpline
 70
8
 71
3
 72
8
 73
4
 74
0
 40
0
 40
0
 40
0
 40
0
 40
1
 40
1
 40
1
 40
1
 10
10.993623
 20
7.804792
 30
0.0
 10
10.971558
 20
7.679087
 30
0.0
 10
10.939244
 20
7.562500
 30
0.0
 10
10.896688
 20
7.455043
 30
0.0
  0
SPLINE
  5
1a5
100
AcDbEntity
  8
Layer_1
 62
7
100
AcDbSpline
 70
8
 71
3
 72
8
 73
4
 74
0
 40
0
 40
0
 40
0
 40
0
 40
1
 40
1
 40
1
 40
1
 10
10.896688
 20
7.455043
 30
0.0
 10
10.877774
 20
7.400301
 30
0.0
 10
10.868317
 20
7.365843
 30
0.0
 10
10.868317
 20
7.351651
 30
0.0
  0
SPLINE
  5
1a6
100
AcDbEntity
  8
Layer_1
 62
7
100
AcDbSpline
 70
8
 71
3
 72
8
 73
4
 74
0
 40
0
 40
0
 40
0
 40
0
 40
1
 40
1
 40
1
 40
1
 10
10.868317
 20
7.351651
 30
0.0
 10
10.868317
 20
7.300963
 30
0.0
 10
10.895896
 20
7.275612
 30
0.0
 10
10.951061
 20
7.275612
 30
0.0
  0
SPLINE
  5
1a7
100
AcDbEntity
  8
Layer_1
 62
7
100
AcDbSpline
 70
8
 71
3
 72
8
 73
4
 74
0
 40
0
 40
0
 40
0
 40
0
 40
1
 40
1
 40
1
 40
1
 10
10.951061
 20
7.275612
 30
0.0
 10
11.086607
 20
7.275612
 30
0.0
 10
11.215060
 20
7.325291
 30
0.0
 10
11.336422
 20
7.424638
 30
0.0
  0
SPLINE
  5
1a8
100
AcDbEntity
  8
Layer_1
 62
7
100
AcDbSpline
 70
8
 71
3
 72
8
 73
4
 74
0
 40
0
 40
0
 40
0
 40
0
 40
1
 40
1
 40
1
 40
1
 10
11.336422
 20
7.424638
 30
0.0
 10
11.457784
 20
7.523986
 30
0.0
 10
11.554728
 20
7.655767
 30
0.0
 10
11.627229
 20
7.819994
 30
0.0
  0
SPLINE
  5
1a9
100
AcDbEntity
  8
Layer_1
 62
7
100
AcDbSpline
 70
8
 71
3
 72
8
 73
4
 74
0
 40
0
 40
0
 40
0
 40
0
 40
1
 40
1
 40
1
 40
1
 10
11.627229
 20
7.819994
 30
0.0
 10
11.701307
 20
7.984222
 30
0.0
 10
11.738344
 20
8.153519
 30
0.0
 10
11.738344
 20
8.327883
 30
0.0
  0
SPLINE
  5
1aa
100
AcDbEntity
  8
Layer_1
 62
7
100
AcDbSpline
 70
8
 71
3
 72
8
 73
4
 74
0
 40
0
 40
0
 40
0
 40
0
 40
1
 40
1
 40
1
 40
1
 10
11.738344
 20
8.327883
 30
0.0
 10
11.738344
 20
8.775959
 30
0.0
 10
11.539747
 20
9.000000
 30
0.0
 10
11.142562
 20
9.000000
 30
0.0
  0
LWPOLYLINE
  5
1ab
100
AcDbEntity
  8
Layer_1
 62
7
100
AcDbPolyline
 90
2
 70
0
 10
10.668917
 20
2.516787
 30
0.0
 10
10.677422
 20
2.516787
 30
0.0
  0
SPLINE
  5
1ac
100
AcDbEntity
  8
Layer_1
 62
7
100
AcDbSpline
 70
8
 71
3
 72
8
 73
4
 74
0
 40
0
 40
0
 40
0
 40
0
 40
1
 40
1
 40
1
 40
1
 10
7.661245
 20
8.311491
 30
0.0
 10
7.701783
 20
8.312192
 30
0.0
 10
7.727454
 20
8.304925
 30
0.0
 10
7.772360
 20
8.287227
 30
0.0
  0
SPLINE
  5
1ad
100
AcDbEntity
  8
Layer_1
 62
7
100
AcDbSpline
 70
8
 71
3
 72
8
 73
4
 74
0
 40
0
 40
0
 40
0
 40
0
 40
1
 40
1
 40
1
 40
1
 10
7.772360
 20
8.287227
 30
0.0
 10
7.881985
 20
8.244026
 30
0.0
 10
7.964817
 20
8.178820
 30
0.0
 10
8.035830
 20
8.079843
 30
0.0
  0
SPLINE
  5
1ae
100
AcDbEntity
  8
Layer_1
 62
7
100
AcDbSpline
 70
8
 71
3
 72
8
 73
4
 74
0
 40
0
 40
0
 40
0
 40
0
 40
1
 40
1
 40
1
 40
1
 10
8.035830
 20
8.079843
 30
0.0
 10
8.093355
 20
7.999661
 30
0.0
 10
8.096280
 20
7.990792
 30
0.0
 10
8.122304
 20
7.817841
 30
0.0
  0
SPLINE
  5
1af
100
AcDbEntity
  8
Layer_1
 62
7
100
AcDbSpline
 70
8
 71
3
 72
8
 73
4
 74
0
 40
0
 40
0
 40
0
 40
0
 40
1
 40
1
 40
1
 40
1
 10
8.122304
 20
7.817841
 30
0.0
 10
8.147783
 20
7.648490
 30
0.0
 10
8.147618
 20
7.632067
 30
0.0
 10
8.119193
 20
7.513256
 30
0.0
  0
SPLINE
  5
1b0
100
AcDbEntity
  8
Layer_1
 62
7
100
AcDbSpline
 70
8
 71
3
 72
8
 73
4
 74
0
 40
0
 40
0
 40
0
 40
0
 40
1
 40
1
 40
1
 40
1
 10
8.119193
 20
7.513256
 30
0.0
 10
8.092560
 20
7.401932
 30
0.0
 10
8.077821
 20
7.372631
 30
0.0
 10
7.989440
 20
7.255335
 30
0.0
  0
SPLINE
  5
1b1
100
AcDbEntity
  8
Layer_1
 62
7
100
AcDbSpline
 70
8
 71
3
 72
8
 73
4
 74
0
 40
0
 40
0
 40
0
 40
0
 40
1
 40
1
 40
1
 40
1
 10
7.989440
 20
7.255335
 30
0.0
 10
7.904006
 20
7.141950
 30
0.0
 10
7.877076
 20
7.116376
 30
0.0
 10
7.801231
 20
7.076647
 30
0.0
  0
SPLINE
  5
1b2
100
AcDbEntity
  8
Layer_1
 62
7
100
AcDbSpline
 70
8
 71
3
 72
8
 73
4
 74
0
 40
0
 40
0
 40
0
 40
0
 40
1
 40
1
 40
1
 40
1
 10
7.801231
 20
7.076647
 30
0.0
 10
7.702029
 20
7.024683
 30
0.0
 10
7.671019
 20
7.017718
 30
0.0
 10
7.563593
 20
7.023217
 30
0.0
  0
SPLINE
  5
1b3
100
AcDbEntity
  8
Layer_1
 62
7
100
AcDbSpline
 70
8
 71
3
 72
8
 73
4
 74
0
 40
0
 40
0
 40
0
 40
0
 40
1
 40
1
 40
1
 40
1
 10
7.563593
 20
7.023217
 30
0.0
 10
7.386864
 20
7.032261
 30
0.0
 10
7.196290
 20
7.154252
 30
0.0
 10
7.111951
 20
7.312325
 30
0.0
  0
SPLINE
  5
1b4
100
AcDbEntity
  8
Layer_1
 62
7
100
AcDbSpline
 70
8
 71
3
 72
8
 73
4
 74
0
 40
0
 40
0
 40
0
 40
0
 40
1
 40
1
 40
1
 40
1
 10
7.111951
 20
7.312325
 30
0.0
 10
7.061363
 20
7.407142
 30
0.0
 10
7.030259
 20
7.566556
 30
0.0
 10
7.038272
 20
7.689975
 30
0.0
  0
SPLINE
  5
1b5
100
AcDbEntity
  8
Layer_1
 62
7
100
AcDbSpline
 70
8
 71
3
 72
8
 73
4
 74
0
 40
0
 40
0
 40
0
 40
0
 40
1
 40
1
 40
1
 40
1
 10
7.038272
 20
7.689975
 30
0.0
 10
7.051017
 20
7.886283
 30
0.0
 10
7.179989
 20
8.109785
 30
0.0
 10
7.345494
 20
8.222376
 30
0.0
  0
SPLINE
  5
1b6
100
AcDbEntity
  8
Layer_1
 62
7
100
AcDbSpline
 70
8
 71
3
 72
8
 73
4
 74
0
 40
0
 40
0
 40
0
 40
0
 40
1
 40
1
 40
1
 40
1
 10
7.345494
 20
8.222376
 30
0.0
 10
7.432602
 20
8.281634
 30
0.0
 10
7.445378
 20
8.286287
 30
0.0
 10
7.564857
 20
8.302156
 30
0.0
  0
SPLINE
  5
1b7
100
AcDbEntity
  8
Layer_1
 62
7
100
AcDbSpline
 70
8
 71
3
 72
8
 73
4
 74
0
 40
0
 40
0
 40
0
 40
0
 40
1
 40
1
 40
1
 40
1
 10
7.564857
 20
8.302156
 30
0.0
 10
7.607249
 20
8.307787
 30
0.0
 10
7.636924
 20
8.311071
 30
0.0
 10
7.661246
 20
8.311491
 30
0.0
  0
LWPOLYLINE
  5
1b8
100
AcDbEntity
  8
Layer_1
 62
7
100
AcDbPolyline
 90
1
 70
1
 10
11.142562
 20
9.000000
 30
0.0
  0
SPLINE
  5
1b9
100
AcDbEntity
  8
Layer_1
 62
7
100
AcDbSpline
 70
8
 71
3
 72
8
 73
4
 74
0
 40
0
 40
0
 40
0
 40
0
 40
1
 40
1
 40
1
 40
1
 10
6.304255
 20
8.078812
 30
0.0
 10
6.341565
 20
8.079167
 30
0.0
 10
6.374067
 20
8.071713
 30
0.0
 10
6.434883
 20
8.055213
 30
0.0
  0
SPLINE
  5
1ba
100
AcDbEntity
  8
Layer_1
 62
7
100
AcDbSpline
 70
8
 71
3
 72
8
 73
4
 74
0
 40
0
 40
0
 40
0
 40
0
 40
1
 40
1
 40
1
 40
1
 10
6.434883
 20
8.055213
 30
0.0
 10
6.624036
 20
8.003894
 30
0.0
 10
6.786135
 20
7.857057
 30
0.0
 10
6.861872
 20
7.668423
 30
0.0
  0
SPLINE
  5
1bb
100
AcDbEntity
  8
Layer_1
 62
7
100
AcDbSpline
 70
8
 71
3
 72
8
 73
4
 74
0
 40
0
 40
0
 40
0
 40
0
 40
1
 40
1
 40
1
 40
1
 10
6.861872
 20
7.668423
 30
0.0
 10
6.905640
 20
7.559413
 30
0.0
 10
6.925236
 20
7.339915
 30
0.0
 10
6.900583
 20
7.234735
 30
0.0
  0
SPLINE
  5
1bc
100
AcDbEntity
  8
Layer_1
 62
7
100
AcDbSpline
 70
8
 71
3
 72
8
 73
4
 74
0
 40
0
 40
0
 40
0
 40
0
 40
1
 40
1
 40
1
 40
1
 10
6.900583
 20
7.234735
 30
0.0
 10
6.873360
 20
7.118586
 30
0.0
 10
6.777988
 20
6.982624
 30
0.0
 10
6.674683
 20
6.912679
 30
0.0
  0
SPLINE
  5
1bd
100
AcDbEntity
  8
Layer_1
 62
7
100
AcDbSpline
 70
8
 71
3
 72
8
 73
4
 74
0
 40
0
 40
0
 40
0
 40
0
 40
1
 40
1
 40
1
 40
1
 10
6.674683
 20
6.912679
 30
0.0
 10
6.607391
 20
6.867116
 30
0.0
 10
6.575951
 20
6.854963
 30
0.0
 10
6.485441
 20
6.839561
 30
0.0
  0
SPLINE
  5
1be
100
AcDbEntity
  8
Layer_1
 62
7
100
AcDbSpline
 70
8
 71
3
 72
8
 73
4
 74
0
 40
0
 40
0
 40
0
 40
0
 40
1
 40
1
 40
1
 40
1
 10
6.485441
 20
6.839561
 30
0.0
 10
6.425744
 20
6.829402
 30
0.0
 10
6.352149
 20
6.825107
 30
0.0
 10
6.321885
 20
6.830017
 30
0.0
  0
SPLINE
  5
1bf
100
AcDbEntity
  8
Layer_1
 62
7
100
AcDbSpline
 70
8
 71
3
 72
8
 73
4
 74
0
 40
0
 40
0
 40
0
 40
0
 40
1
 40
1
 40
1
 40
1
 10
6.321885
 20
6.830017
 30
0.0
 10
6.169117
 20
6.854802
 30
0.0
 10
6.025032
 20
6.952739
 30
0.0
 10
5.909817
 20
7.110103
 30
0.0
  0
SPLINE
  5
1c0
100
AcDbEntity
  8
Layer_1
 62
7
100
AcDbSpline
 70
8
 71
3
 72
8
 73
4
 74
0
 40
0
 40
0
 40
0
 40
0
 40
1
 40
1
 40
1
 40
1
 10
5.909817
 20
7.110103
 30
0.0
 10
5.697306
 20
7.400358
 30
0.0
 10
5.737567
 20
7.822848
 30
0.0
 10
5.993934
 20
7.992747
 30
0.0
  0
SPLINE
  5
1c1
100
AcDbEntity
  8
Layer_1
 62
7
100
AcDbSpline
 70
8
 71
3
 72
8
 73
4
 74
0
 40
0
 40
0
 40
0
 40
0
 40
1
 40
1
 40
1
 40
1
 10
5.993934
 20
7.992747
 30
0.0
 10
6.054903
 20
8.033152
 30
0.0
 10
6.090078
 20
8.045816
 30
0.0
 10
6.192872
 20
8.064418
 30
0.0
  0
SPLINE
  5
1c2
100
AcDbEntity
  8
Layer_1
 62
7
100
AcDbSpline
 70
8
 71
3
 72
8
 73
4
 74
0
 40
0
 40
0
 40
0
 40
0
 40
1
 40
1
 40
1
 40
1
 10
6.192872
 20
8.064418
 30
0.0
 10
6.243304
 20
8.073537
 30
0.0
 10
6.275236
 20
8.078536
 30
0.0
 10
6.304255
 20
8.078812
 30
0.0
  0
LWPOLYLINE
  5
1c3
100
AcDbEntity
  8
Layer_1
 62
7
100
AcDbPolyline
 90
1
 70
1
 10
7.661246
 20
8.311491
 30
0.0
  0
SPLINE
  5
1c4
100
AcDbEntity
  8
Layer_1
 62
7
100
AcDbSpline
 70
8
 71
3
 72
8
 73
4
 74
0
 40
0
 40
0
 40
0
 40
0
 40
1
 40
1
 40
1
 40
1
 10
8.685400
 20
7.605553
 30
0.0
 10
8.768913
 20
7.604270
 30
0.0
 10
8.829263
 20
7.571321
 30
0.0
 10
8.901215
 20
7.497623
 30
0.0
  0
SPLINE
  5
1c5
100
AcDbEntity
  8
Layer_1
 62
7
100
AcDbSpline
 70
8
 71
3
 72
8
 73
4
 74
0
 40
0
 40
0
 40
0
 40
0
 40
1
 40
1
 40
1
 40
1
 10
8.901215
 20
7.497623
 30
0.0
 10
8.986668
 20
7.410098
 30
0.0
 10
9.023069
 20
7.333933
 30
0.0
 10
9.044140
 20
7.198593
 30
0.0
  0
SPLINE
  5
1c6
100
AcDbEntity
  8
Layer_1
 62
7
100
AcDbSpline
 70
8
 71
3
 72
8
 73
4
 74
0
 40
0
 40
0
 40
0
 40
0
 40
1
 40
1
 40
1
 40
1
 10
9.044140
 20
7.198593
 30
0.0
 10
9.060707
 20
7.092188
 30
0.0
 10
9.045577
 20
7.008129
 30
0.0
 10
8.985758
 20
6.874334
 30
0.0
  0
SPLINE
  5
1c7
100
AcDbEntity
  8
Layer_1
 62
7
100
AcDbSpline
 70
8
 71
3
 72
8
 73
4
 74
0
 40
0
 40
0
 40
0
 40
0
 40
1
 40
1
 40
1
 40
1
 10
8.985758
 20
6.874334
 30
0.0
 10
8.922739
 20
6.733388
 30
0.0
 10
8.851749
 20
6.641681
 30
0.0
 10
8.748643
 20
6.568002
 30
0.0
  0
SPLINE
  5
1c8
100
AcDbEntity
  8
Layer_1
 62
7
100
AcDbSpline
 70
8
 71
3
 72
8
 73
4
 74
0
 40
0
 40
0
 40
0
 40
0
 40
1
 40
1
 40
1
 40
1
 10
8.748643
 20
6.568002
 30
0.0
 10
8.619775
 20
6.475914
 30
0.0
 10
8.474657
 20
6.447939
 30
0.0
 10
8.370208
 20
6.495041
 30
0.0
  0
SPLINE
  5
1c9
100
AcDbEntity
  8
Layer_1
 62
7
100
AcDbSpline
 70
8
 71
3
 72
8
 73
4
 74
0
 40
0
 40
0
 40
0
 40
0
 40
1
 40
1
 40
1
 40
1
 10
8.370208
 20
6.495041
 30
0.0
 10
8.260084
 20
6.544701
 30
0.0
 10
8.177826
 20
6.651133
 30
0.0
 10
8.113470
 20
6.827240
 30
0.0
  0
LWPOLYLINE
  5
1ca
100
AcDbEntity
  8
Layer_1
 62
7
100
AcDbPolyline
 90
1
 70
1
 10
6.304255
 20
8.078812
 30
0.0
  0
SPLINE
  5
1cb
100
AcDbEntity
  8
Layer_1
 62
7
100
AcDbSpline
 70
8
 71
3
 72
8
 73
4
 74
0
 40
0
 40
0
 40
0
 40
0
 40
1
 40
1
 40
1
 40
1
 10
8.095427
 20
7.042318
 30
0.0
 10
8.126814
 20
7.179236
 30
0.0
 10
8.187948
 20
7.305547
 30
0.0
 10
8.272264
 20
7.407660
 30
0.0
  0
SPLINE
  5
1cc
100
AcDbEntity
  8
Layer_1
 62
7
100
AcDbSpline
 70
8
 71
3
 72
8
 73
4
 74
0
 40
0
 40
0
 40
0
 40
0
 40
1
 40
1
 40
1
 40
1
 10
8.272264
 20
7.407660
 30
0.0
 10
8.367294
 20
7.522751
 30
0.0
 10
8.423009
 20
7.558524
 30
0.0
 10
8.553897
 20
7.588525
 30
0.0
  0
SPLINE
  5
1cd
100
AcDbEntity
  8
Layer_1
 62
7
100
AcDbSpline
 70
8
 71
3
 72
8
 73
4
 74
0
 40
0
 40
0
 40
0
 40
0
 40
1
 40
1
 40
1
 40
1
 10
8.553897
 20
7.588525
 30
0.0
 10
8.604693
 20
7.600169
 30
0.0
 10
8.647440
 20
7.606137
 30
0.0
 10
8.685400
 20
7.605553
 30
0.0
  0
LWPOLYLINE
  5
1ce
100
AcDbEntity
  8
Layer_1
 62
7
100
AcDbPolyline
 90
3
 70
0
 10
8.113470
 20
6.827240
 30
0.0
 10
8.072086
 20
6.940489
 30
0.0
 10
8.095427
 20
7.042318
 30
0.0
  0
SPLINE
  5
1cf
100
AcDbEntity
  8
Layer_1
 62
7
100
AcDbSpline
 70
8
 71
3
 72
8
 73
4
 74
0
 40
0
 40
0
 40
0
 40
0
 40
1
 40
1
 40
1
 40
1
 10
5.527409
 20
7.082084
 30
0.0
 10
5.617798
 20
7.080521
 30
0.0
 10
5.702377
 20
7.050224
 30
0.0
 10
5.798945
 20
6.986931
 30
0.0
  0
SPLINE
  5
1d0
100
AcDbEntity
  8
Layer_1
 62
7
100
AcDbSpline
 70
8
 71
3
 72
8
 73
4
 74
0
 40
0
 40
0
 40
0
 40
0
 40
1
 40
1
 40
1
 40
1
 10
5.798945
 20
6.986931
 30
0.0
 10
5.969053
 20
6.875439
 30
0.0
 10
6.111877
 20
6.647811
 30
0.0
 10
6.122352
 20
6.471520
 30
0.0
  0
SPLINE
  5
1d1
100
AcDbEntity
  8
Layer_1
 62
7
100
AcDbSpline
 70
8
 71
3
 72
8
 73
4
 74
0
 40
0
 40
0
 40
0
 40
0
 40
1
 40
1
 40
1
 40
1
 10
6.122352
 20
6.471520
 30
0.0
 10
6.129639
 20
6.348880
 30
0.0
 10
6.077481
 20
6.208803
 30
0.0
 10
5.994894
 20
6.129216
 30
0.0
  0
SPLINE
  5
1d2
100
AcDbEntity
  8
Layer_1
 62
7
100
AcDbSpline
 70
8
 71
3
 72
8
 73
4
 74
0
 40
0
 40
0
 40
0
 40
0
 40
1
 40
1
 40
1
 40
1
 10
5.994894
 20
6.129216
 30
0.0
 10
5.934805
 20
6.071309
 30
0.0
 10
5.923007
 20
6.065791
 30
0.0
 10
5.807961
 20
6.041808
 30
0.0
  0
SPLINE
  5
1d3
100
AcDbEntity
  8
Layer_1
 62
7
100
AcDbSpline
 70
8
 71
3
 72
8
 73
4
 74
0
 40
0
 40
0
 40
0
 40
0
 40
1
 40
1
 40
1
 40
1
 10
5.807961
 20
6.041808
 30
0.0
 10
5.697694
 20
6.018824
 30
0.0
 10
5.675231
 20
6.018701
 30
0.0
 10
5.588002
 20
6.040607
 30
0.0
  0
SPLINE
  5
1d4
100
AcDbEntity
  8
Layer_1
 62
7
100
AcDbSpline
 70
8
 71
3
 72
8
 73
4
 74
0
 40
0
 40
0
 40
0
 40
0
 40
1
 40
1
 40
1
 40
1
 10
5.588002
 20
6.040607
 30
0.0
 10
5.367810
 20
6.095910
 30
0.0
 10
5.167086
 20
6.297564
 30
0.0
 10
5.115377
 20
6.515418
 30
0.0
  0
SPLINE
  5
1d5
100
AcDbEntity
  8
Layer_1
 62
7
100
AcDbSpline
 70
8
 71
3
 72
8
 73
4
 74
0
 40
0
 40
0
 40
0
 40
0
 40
1
 40
1
 40
1
 40
1
 10
5.115377
 20
6.515418
 30
0.0
 10
5.092748
 20
6.610754
 30
0.0
 10
5.092412
 20
6.635692
 30
0.0
 10
5.112511
 20
6.724211
 30
0.0
  0
SPLINE
  5
1d6
100
AcDbEntity
  8
Layer_1
 62
7
100
AcDbSpline
 70
8
 71
3
 72
8
 73
4
 74
0
 40
0
 40
0
 40
0
 40
0
 40
1
 40
1
 40
1
 40
1
 10
5.112511
 20
6.724211
 30
0.0
 10
5.162170
 20
6.942936
 30
0.0
 10
5.253295
 20
7.042006
 30
0.0
 10
5.434423
 20
7.074221
 30
0.0
  0
SPLINE
  5
1d7
100
AcDbEntity
  8
Layer_1
 62
7
100
AcDbSpline
 70
8
 71
3
 72
8
 73
4
 74
0
 40
0
 40
0
 40
0
 40
0
 40
1
 40
1
 40
1
 40
1
 10
5.434423
 20
7.074221
 30
0.0
 10
5.466504
 20
7.079927
 30
0.0
 10
5.497280
 20
7.082604
 30
0.0
 10
5.527410
 20
7.082083
 30
0.0
  0
LWPOLYLINE
  5
1d8
100
AcDbEntity
  8
Layer_1
 62
7
100
AcDbPolyline
 90
1
 70
1
 10
8.685400
 20
7.605553
 30
0.0
  0
SPLINE
  5
1d9
100
AcDbEntity
  8
Layer_1
 62
7
100
AcDbSpline
 70
8
 71
3
 72
8
 73
4
 74
0
 40
0
 40
0
 40
0
 40
0
 40
1
 40
1
 40
1
 40
1
 10
7.224354
 20
6.900150
 30
0.0
 10
7.254409
 20
6.900228
 30
0.0
 10
7.285526
 20
6.898598
 30
0.0
 10
7.323477
 20
6.895704
 30
0.0
  0
SPLINE
  5
1da
100
AcDbEntity
  8
Layer_1
 62
7
100
AcDbSpline
 70
8
 71
3
 72
8
 73
4
 74
0
 40
0
 40
0
 40
0
 40
0
 40
1
 40
1
 40
1
 40
1
 10
7.323477
 20
6.895704
 30
0.0
 10
7.484784
 20
6.883400
 30
0.0
 10
7.634275
 20
6.840451
 30
0.0
 10
7.738437
 20
6.776469
 30
0.0
  0
SPLINE
  5
1db
100
AcDbEntity
  8
Layer_1
 62
7
100
AcDbSpline
 70
8
 71
3
 72
8
 73
4
 74
0
 40
0
 40
0
 40
0
 40
0
 40
1
 40
1
 40
1
 40
1
 10
7.738437
 20
6.776469
 30
0.0
 10
7.777278
 20
6.752611
 30
0.0
 10
7.863446
 20
6.681552
 30
0.0
 10
7.929927
 20
6.618564
 30
0.0
  0
SPLINE
  5
1dc
100
AcDbEntity
  8
Layer_1
 62
7
100
AcDbSpline
 70
8
 71
3
 72
8
 73
4
 74
0
 40
0
 40
0
 40
0
 40
0
 40
1
 40
1
 40
1
 40
1
 10
7.929927
 20
6.618564
 30
0.0
 10
8.068726
 20
6.487058
 30
0.0
 10
8.102330
 20
6.464352
 30
0.0
 10
8.317791
 20
6.356471
 30
0.0
  0
SPLINE
  5
1dd
100
AcDbEntity
  8
Layer_1
 62
7
100
AcDbSpline
 70
8
 71
3
 72
8
 73
4
 74
0
 40
0
 40
0
 40
0
 40
0
 40
1
 40
1
 40
1
 40
1
 10
8.317791
 20
6.356471
 30
0.0
 10
8.500178
 20
6.265150
 30
0.0
 10
8.590385
 20
6.192589
 30
0.0
 10
8.679715
 20
6.065368
 30
0.0
  0
SPLINE
  5
1de
100
AcDbEntity
  8
Layer_1
 62
7
100
AcDbSpline
 70
8
 71
3
 72
8
 73
4
 74
0
 40
0
 40
0
 40
0
 40
0
 40
1
 40
1
 40
1
 40
1
 10
8.679715
 20
6.065368
 30
0.0
 10
8.837643
 20
5.840450
 30
0.0
 10
8.921039
 20
5.539485
 30
0.0
 10
8.897206
 20
5.280458
 30
0.0
  0
SPLINE
  5
1df
100
AcDbEntity
  8
Layer_1
 62
7
100
AcDbSpline
 70
8
 71
3
 72
8
 73
4
 74
0
 40
0
 40
0
 40
0
 40
0
 40
1
 40
1
 40
1
 40
1
 10
8.897206
 20
5.280458
 30
0.0
 10
8.882152
 20
5.116852
 30
0.0
 10
8.848854
 20
5.030690
 30
0.0
 10
8.758898
 20
4.922573
 30
0.0
  0
SPLINE
  5
1e0
100
AcDbEntity
  8
Layer_1
 62
7
100
AcDbSpline
 70
8
 71
3
 72
8
 73
4
 74
0
 40
0
 40
0
 40
0
 40
0
 40
1
 40
1
 40
1
 40
1
 10
8.758898
 20
4.922573
 30
0.0
 10
8.669038
 20
4.814571
 30
0.0
 10
8.608315
 20
4.770783
 30
0.0
 10
8.455187
 20
4.703571
 30
0.0
  0
SPLINE
  5
1e1
100
AcDbEntity
  8
Layer_1
 62
7
100
AcDbSpline
 70
8
 71
3
 72
8
 73
4
 74
0
 40
0
 40
0
 40
0
 40
0
 40
1
 40
1
 40
1
 40
1
 10
8.455187
 20
4.703571
 30
0.0
 10
8.235544
 20
4.607164
 30
0.0
 10
7.879983
 20
4.580700
 30
0.0
 10
7.577517
 20
4.638250
 30
0.0
  0
SPLINE
  5
1e2
100
AcDbEntity
  8
Layer_1
 62
7
100
AcDbSpline
 70
8
 71
3
 72
8
 73
4
 74
0
 40
0
 40
0
 40
0
 40
0
 40
1
 40
1
 40
1
 40
1
 10
7.577517
 20
4.638250
 30
0.0
 10
7.433756
 20
4.665603
 30
0.0
 10
7.299614
 20
4.633412
 30
0.0
 10
7.098610
 20
4.523319
 30
0.0
  0
SPLINE
  5
1e3
100
AcDbEntity
  8
Layer_1
 62
7
100
AcDbSpline
 70
8
 71
3
 72
8
 73
4
 74
0
 40
0
 40
0
 40
0
 40
0
 40
1
 40
1
 40
1
 40
1
 10
7.098610
 20
4.523319
 30
0.0
 10
6.963923
 20
4.449547
 30
0.0
 10
6.941703
 20
4.441795
 30
0.0
 10
6.745472
 20
4.400017
 30
0.0
  0
SPLINE
  5
1e4
100
AcDbEntity
  8
Layer_1
 62
7
100
AcDbSpline
 70
8
 71
3
 72
8
 73
4
 74
0
 40
0
 40
0
 40
0
 40
0
 40
1
 40
1
 40
1
 40
1
 10
6.745472
 20
4.400017
 30
0.0
 10
6.564404
 20
4.361467
 30
0.0
 10
6.518963
 20
4.356417
 30
0.0
 10
6.409611
 20
4.362688
 30
0.0
  0
SPLINE
  5
1e5
100
AcDbEntity
  8
Layer_1
 62
7
100
AcDbSpline
 70
8
 71
3
 72
8
 73
4
 74
0
 40
0
 40
0
 40
0
 40
0
 40
1
 40
1
 40
1
 40
1
 10
6.409611
 20
4.362688
 30
0.0
 10
5.981178
 20
4.387262
 30
0.0
 10
5.748515
 20
4.607337
 30
0.0
 10
5.679009
 20
5.053776
 30
0.0
  0
SPLINE
  5
1e6
100
AcDbEntity
  8
Layer_1
 62
7
100
AcDbSpline
 70
8
 71
3
 72
8
 73
4
 74
0
 40
0
 40
0
 40
0
 40
0
 40
1
 40
1
 40
1
 40
1
 10
5.679009
 20
5.053776
 30
0.0
 10
5.662367
 20
5.160663
 30
0.0
 10
5.661383
 20
5.222778
 30
0.0
 10
5.674720
 20
5.323314
 30
0.0
  0
SPLINE
  5
1e7
100
AcDbEntity
  8
Layer_1
 62
7
100
AcDbSpline
 70
8
 71
3
 72
8
 73
4
 74
0
 40
0
 40
0
 40
0
 40
0
 40
1
 40
1
 40
1
 40
1
 10
5.674720
 20
5.323314
 30
0.0
 10
5.712544
 20
5.608455
 30
0.0
 10
5.789456
 20
5.748708
 30
0.0
 10
6.049802
 20
6.007283
 30
0.0
  0
SPLINE
  5
1e8
100
AcDbEntity
  8
Layer_1
 62
7
100
AcDbSpline
 70
8
 71
3
 72
8
 73
4
 74
0
 40
0
 40
0
 40
0
 40
0
 40
1
 40
1
 40
1
 40
1
 10
6.049802
 20
6.007283
 30
0.0
 10
6.217021
 20
6.173364
 30
0.0
 10
6.231247
 20
6.192231
 30
0.0
 10
6.311885
 20
6.354920
 30
0.0
  0
SPLINE
  5
1e9
100
AcDbEntity
  8
Layer_1
 62
7
100
AcDbSpline
 70
8
 71
3
 72
8
 73
4
 74
0
 40
0
 40
0
 40
0
 40
0
 40
1
 40
1
 40
1
 40
1
 10
6.311885
 20
6.354920
 30
0.0
 10
6.489630
 20
6.713522
 30
0.0
 10
6.606415
 20
6.803681
 30
0.0
 10
6.979877
 20
6.870618
 30
0.0
  0
SPLINE
  5
1ea
100
AcDbEntity
  8
Layer_1
 62
7
100
AcDbSpline
 70
8
 71
3
 72
8
 73
4
 74
0
 40
0
 40
0
 40
0
 40
0
 40
1
 40
1
 40
1
 40
1
 10
6.979877
 20
6.870618
 30
0.0
 10
7.097248
 20
6.891654
 30
0.0
 10
7.158234
 20
6.899996
 30
0.0
 10
7.224354
 20
6.900150
 30
0.0
  0
LWPOLYLINE
  5
1eb
100
AcDbEntity
  8
Layer_1
 62
7
100
AcDbPolyline
 90
1
 70
1
 10
5.527410
 20
7.082083
 30
0.0
  0
SPLINE
  5
1ec
100
AcDbEntity
  8
Layer_1
 62
7
100
AcDbSpline
 70
8
 71
3
 72
8
 73
4
 74
0
 40
0
 40
0
 40
0
 40
0
 40
1
 40
1
 40
1
 40
1
 10
8.961008
 20
6.506345
 30
0.0
 10
8.937004
 20
6.364535
 30
0.0
 10
8.924969
 20
6.224580
 30
0.0
 10
8.924969
 20
6.086490
 30
0.0
  0
SPLINE
  5
1ed
100
AcDbEntity
  8
Layer_1
 62
7
100
AcDbSpline
 70
8
 71
3
 72
8
 73
4
 74
0
 40
0
 40
0
 40
0
 40
0
 40
1
 40
1
 40
1
 40
1
 10
8.924969
 20
6.086490
 30
0.0
 10
8.924969
 20
6.072759
 30
0.0
 10
8.925127
 20
6.059179
 30
0.0
 10
8.925284
 20
6.045641
 30
0.0
  0
SPLINE
  5
1ee
100
AcDbEntity
  8
Layer_1
 62
7
100
AcDbSpline
 70
8
 71
3
 72
8
 73
4
 74
0
 40
0
 40
0
 40
0
 40
0
 40
1
 40
1
 40
1
 40
1
 10
8.925284
 20
6.045641
 30
0.0
 10
8.906616
 20
6.083870
 30
0.0
 10
8.885111
 20
6.125538
 30
0.0
 10
8.860024
 20
6.172763
 30
0.0
  0
LWPOLYLINE
  5
1ef
100
AcDbEntity
  8
Layer_1
 62
7
100
AcDbPolyline
 90
1
 70
1
 10
7.224354
 20
6.900150
 30
0.0
  0
SPLINE
  5
1f0
100
AcDbEntity
  8
Layer_1
 62
7
100
AcDbSpline
 70
8
 71
3
 72
8
 73
4
 74
0
 40
0
 40
0
 40
0
 40
0
 40
1
 40
1
 40
1
 40
1
 10
8.867922
 20
6.360461
 30
0.0
 10
8.890472
 20
6.407201
 30
0.0
 10
8.924019
 20
6.459317
 30
0.0
 10
8.961019
 20
6.506345
 30
0.0
  0
LWPOLYLINE
  5
1f1
100
AcDbEntity
  8
Layer_1
 62
7
100
AcDbPolyline
 90
3
 70
0
 10
8.860024
 20
6.172763
 30
0.0
 10
8.816709
 20
6.254304
 30
0.0
 10
8.867922
 20
6.360461
 30
0.0
  0
SPLINE
  5
1f2
100
AcDbEntity
  8
Layer_1
 62
7
100
AcDbSpline
 70
8
 71
3
 72
8
 73
4
 74
0
 40
0
 40
0
 40
0
 40
0
 40
1
 40
1
 40
1
 40
1
 10
4.962732
 20
6.353225
 30
0.0
 10
5.006875
 20
6.263728
 30
0.0
 10
5.090535
 20
6.156788
 30
0.0
 10
5.216493
 20
6.028861
 30
0.0
  0
SPLINE
  5
1f3
100
AcDbEntity
  8
Layer_1
 62
7
100
AcDbSpline
 70
8
 71
3
 72
8
 73
4
 74
0
 40
0
 40
0
 40
0
 40
0
 40
1
 40
1
 40
1
 40
1
 10
5.216493
 20
6.028861
 30
0.0
 10
5.272929
 20
5.971543
 30
0.0
 10
5.357425
 20
5.873867
 30
0.0
 10
5.404265
 20
5.811802
 30
0.0
  0
SPLINE
  5
1f4
100
AcDbEntity
  8
Layer_1
 62
7
100
AcDbSpline
 70
8
 71
3
 72
8
 73
4
 74
0
 40
0
 40
0
 40
0
 40
0
 40
1
 40
1
 40
1
 40
1
 10
5.404265
 20
5.811802
 30
0.0
 10
5.477431
 20
5.714851
 30
0.0
 10
5.491265
 20
5.687169
 30
0.0
 10
5.502464
 20
5.615239
 30
0.0
  0
SPLINE
  5
1f5
100
AcDbEntity
  8
Layer_1
 62
7
100
AcDbSpline
 70
8
 71
3
 72
8
 73
4
 74
0
 40
0
 40
0
 40
0
 40
0
 40
1
 40
1
 40
1
 40
1
 10
5.502464
 20
5.615239
 30
0.0
 10
5.509631
 20
5.569191
 30
0.0
 10
5.510997
 20
5.519315
 30
0.0
 10
5.505487
 20
5.504401
 30
0.0
  0
SPLINE
  5
1f6
100
AcDbEntity
  8
Layer_1
 62
7
100
AcDbSpline
 70
8
 71
3
 72
8
 73
4
 74
0
 40
0
 40
0
 40
0
 40
0
 40
1
 40
1
 40
1
 40
1
 10
5.505487
 20
5.504401
 30
0.0
 10
5.499980
 20
5.489487
 30
0.0
 10
5.490798
 20
5.410301
 30
0.0
 10
5.485087
 20
5.328438
 30
0.0
  0
SPLINE
  5
1f7
100
AcDbEntity
  8
Layer_1
 62
7
100
AcDbSpline
 70
8
 71
3
 72
8
 73
4
 74
0
 40
0
 40
0
 40
0
 40
0
 40
1
 40
1
 40
1
 40
1
 10
5.485087
 20
5.328438
 30
0.0
 10
5.476991
 20
5.212407
 30
0.0
 10
5.481528
 20
5.135628
 30
0.0
 10
5.505670
 20
4.980111
 30
0.0
  0
SPLINE
  5
1f8
100
AcDbEntity
  8
Layer_1
 62
7
100
AcDbSpline
 70
8
 71
3
 72
8
 73
4
 74
0
 40
0
 40
0
 40
0
 40
0
 40
1
 40
1
 40
1
 40
1
 10
5.505670
 20
4.980111
 30
0.0
 10
5.541848
 20
4.747087
 30
0.0
 10
5.574842
 20
4.663026
 30
0.0
 10
5.690465
 20
4.509316
 30
0.0
  0
SPLINE
  5
1f9
100
AcDbEntity
  8
Layer_1
 62
7
100
AcDbSpline
 70
8
 71
3
 72
8
 73
4
 74
0
 40
0
 40
0
 40
0
 40
0
 40
1
 40
1
 40
1
 40
1
 10
5.690465
 20
4.509316
 30
0.0
 10
5.839952
 20
4.310586
 30
0.0
 10
6.038457
 20
4.208478
 30
0.0
 10
6.332381
 20
4.184222
 30
0.0
  0
SPLINE
  5
1fa
100
AcDbEntity
  8
Layer_1
 62
7
100
AcDbSpline
 70
8
 71
3
 72
8
 73
4
 74
0
 40
0
 40
0
 40
0
 40
0
 40
1
 40
1
 40
1
 40
1
 10
6.332381
 20
4.184222
 30
0.0
 10
6.181852
 20
4.123369
 30
0.0
 10
6.041107
 20
4.042461
 30
0.0
 10
5.910168
 20
3.941452
 30
0.0
  0
SPLINE
  5
1fb
100
AcDbEntity
  8
Layer_1
 62
7
100
AcDbSpline
 70
8
 71
3
 72
8
 73
4
 74
0
 40
0
 40
0
 40
0
 40
0
 40
1
 40
1
 40
1
 40
1
 10
5.910168
 20
3.941452
 30
0.0
 10
5.765670
 20
3.829655
 30
0.0
 10
5.624713
 20
3.677202
 30
0.0
 10
5.487298
 20
3.484099
 30
0.0
  0
SPLINE
  5
1fc
100
AcDbEntity
  8
Layer_1
 62
7
100
AcDbSpline
 70
8
 71
3
 72
8
 73
4
 74
0
 40
0
 40
0
 40
0
 40
0
 40
1
 40
1
 40
1
 40
1
 10
5.487298
 20
3.484099
 30
0.0
 10
5.351300
 20
3.290995
 30
0.0
 10
5.230887
 20
3.077565
 30
0.0
 10
5.126056
 20
2.843807
 30
0.0
  0
SPLINE
  5
1fd
100
AcDbEntity
  8
Layer_1
 62
7
100
AcDbSpline
 70
8
 71
3
 72
8
 73
4
 74
0
 40
0
 40
0
 40
0
 40
0
 40
1
 40
1
 40
1
 40
1
 10
5.126056
 20
2.843807
 30
0.0
 10
5.022640
 20
2.612083
 30
0.0
 10
4.941174
 20
2.373249
 30
0.0
 10
4.881675
 20
2.127295
 30
0.0
  0
SPLINE
  5
1fe
100
AcDbEntity
  8
Layer_1
 62
7
100
AcDbSpline
 70
8
 71
3
 72
8
 73
4
 74
0
 40
0
 40
0
 40
0
 40
0
 40
1
 40
1
 40
1
 40
1
 10
4.881675
 20
2.127295
 30
0.0
 10
4.822176
 20
1.881342
 30
0.0
 10
4.792431
 20
1.648604
 30
0.0
 10
4.792431
 20
1.429076
 30
0.0
  0
SPLINE
  5
1ff
100
AcDbEntity
  8
Layer_1
 62
7
100
AcDbSpline
 70
8
 71
3
 72
8
 73
4
 74
0
 40
0
 40
0
 40
0
 40
0
 40
1
 40
1
 40
1
 40
1
 10
4.792431
 20
1.429076
 30
0.0
 10
4.792431
 20
1.137363
 30
0.0
 10
4.840981
 20
0.888646
 30
0.0
 10
4.937968
 20
0.682849
 30
0.0
  0
LWPOLYLINE
  5
200
100
AcDbEntity
  8
Layer_1
 62
7
100
AcDbPolyline
 90
1
 70
1
 10
8.961019
 20
6.506345
 30
0.0
  0
SPLINE
  5
201
100
AcDbEntity
  8
Layer_1
 62
7
100
AcDbSpline
 70
8
 71
3
 72
8
 73
4
 74
0
 40
0
 40
0
 40
0
 40
0
 40
1
 40
1
 40
1
 40
1
 10
4.900338
 20
0.673423
 30
0.0
 10
4.888374
 20
0.695442
 30
0.0
 10
4.872094
 20
0.720137
 30
0.0
 10
4.851396
 20
0.747584
 30
0.0
  0
SPLINE
  5
202
100
AcDbEntity
  8
Layer_1
 62
7
100
AcDbSpline
 70
8
 71
3
 72
8
 73
4
 74
0
 40
0
 40
0
 40
0
 40
0
 40
1
 40
1
 40
1
 40
1
 10
4.851396
 20
0.747584
 30
0.0
 10
4.811543
 20
0.796368
 30
0.0
 10
4.762490
 20
0.873613
 30
0.0
 10
4.704243
 20
0.979311
 30
0.0
  0
SPLINE
  5
203
100
AcDbEntity
  8
Layer_1
 62
7
100
AcDbSpline
 70
8
 71
3
 72
8
 73
4
 74
0
 40
0
 40
0
 40
0
 40
0
 40
1
 40
1
 40
1
 40
1
 10
4.704243
 20
0.979311
 30
0.0
 10
4.655193
 20
1.074847
 30
0.0
 10
4.603849
 20
1.212054
 30
0.0
 10
4.550200
 20
1.390926
 30
0.0
  0
SPLINE
  5
204
100
AcDbEntity
  8
Layer_1
 62
7
100
AcDbSpline
 70
8
 71
3
 72
8
 73
4
 74
0
 40
0
 40
0
 40
0
 40
0
 40
1
 40
1
 40
1
 40
1
 10
4.550200
 20
1.390926
 30
0.0
 10
4.499617
 20
1.592161
 30
0.0
 10
4.461291
 20
1.790343
 30
0.0
 10
4.435234
 20
1.985480
 30
0.0
  0
SPLINE
  5
205
100
AcDbEntity
  8
Layer_1
 62
7
100
AcDbSpline
 70
8
 71
3
 72
8
 73
4
 74
0
 40
0
 40
0
 40
0
 40
0
 40
1
 40
1
 40
1
 40
1
 10
4.435234
 20
1.985480
 30
0.0
 10
4.395380
 20
2.335098
 30
0.0
 10
4.375454
 20
2.705041
 30
0.0
 10
4.375454
 20
3.095314
 30
0.0
  0
SPLINE
  5
206
100
AcDbEntity
  8
Layer_1
 62
7
100
AcDbSpline
 70
8
 71
3
 72
8
 73
4
 74
0
 40
0
 40
0
 40
0
 40
0
 40
1
 40
1
 40
1
 40
1
 10
4.375454
 20
3.095314
 30
0.0
 10
4.375454
 20
3.249797
 30
0.0
 10
4.381587
 20
3.509989
 30
0.0
 10
4.393849
 20
3.875870
 30
0.0
  0
SPLINE
  5
207
100
AcDbEntity
  8
Layer_1
 62
7
100
AcDbSpline
 70
8
 71
3
 72
8
 73
4
 74
0
 40
0
 40
0
 40
0
 40
0
 40
1
 40
1
 40
1
 40
1
 10
4.393849
 20
3.875870
 30
0.0
 10
4.396916
 20
3.938882
 30
0.0
 10
4.398454
 20
3.997824
 30
0.0
 10
4.398454
 20
4.052706
 30
0.0
  0
SPLINE
  5
208
100
AcDbEntity
  8
Layer_1
 62
7
100
AcDbSpline
 70
8
 71
3
 72
8
 73
4
 74
0
 40
0
 40
0
 40
0
 40
0
 40
1
 40
1
 40
1
 40
1
 10
4.398454
 20
4.052706
 30
0.0
 10
4.398454
 20
4.123850
 30
0.0
 10
4.386188
 20
4.169580
 30
0.0
 10
4.361663
 20
4.189907
 30
0.0
  0
SPLINE
  5
209
100
AcDbEntity
  8
Layer_1
 62
7
100
AcDbSpline
 70
8
 71
3
 72
8
 73
4
 74
0
 40
0
 40
0
 40
0
 40
0
 40
1
 40
1
 40
1
 40
1
 10
4.361663
 20
4.189907
 30
0.0
 10
4.338670
 20
4.210233
 30
0.0
 10
4.281958
 20
4.220403
 30
0.0
 10
4.191521
 20
4.220403
 30
0.0
  0
SPLINE
  5
20a
100
AcDbEntity
  8
Layer_1
 62
7
100
AcDbSpline
 70
8
 71
3
 72
8
 73
4
 74
0
 40
0
 40
0
 40
0
 40
0
 40
1
 40
1
 40
1
 40
1
 10
4.191521
 20
4.220403
 30
0.0
 10
4.102665
 20
4.220403
 30
0.0
 10
4.022181
 20
4.212212
 30
0.0
 10
3.949972
 20
4.195917
 30
0.0
  0
SPLINE
  5
20b
100
AcDbEntity
  8
Layer_1
 62
7
100
AcDbSpline
 70
8
 71
3
 72
8
 73
4
 74
0
 40
0
 40
0
 40
0
 40
0
 40
1
 40
1
 40
1
 40
1
 10
3.949972
 20
4.195917
 30
0.0
 10
4.136341
 20
4.343672
 30
0.0
 10
4.303636
 20
4.537352
 30
0.0
 10
4.451807
 20
4.777080
 30
0.0
  0
SPLINE
  5
20c
100
AcDbEntity
  8
Layer_1
 62
7
100
AcDbSpline
 70
8
 71
3
 72
8
 73
4
 74
0
 40
0
 40
0
 40
0
 40
0
 40
1
 40
1
 40
1
 40
1
 10
4.451807
 20
4.777080
 30
0.0
 10
4.616670
 20
5.040544
 30
0.0
 10
4.748710
 20
5.366957
 30
0.0
 10
4.847933
 20
5.756324
 30
0.0
  0
SPLINE
  5
20d
100
AcDbEntity
  8
Layer_1
 62
7
100
AcDbSpline
 70
8
 71
3
 72
8
 73
4
 74
0
 40
0
 40
0
 40
0
 40
0
 40
1
 40
1
 40
1
 40
1
 10
4.847933
 20
5.756324
 30
0.0
 10
4.899344
 20
5.956202
 30
0.0
 10
4.937553
 20
6.155167
 30
0.0
 10
4.962730
 20
6.353225
 30
0.0
  0
LWPOLYLINE
  5
20e
100
AcDbEntity
  8
Layer_1
 62
7
100
AcDbPolyline
 90
2
 70
0
 10
4.937968
 20
0.682849
 30
0.0
 10
4.900338
 20
0.673423
 30
0.0
  0
SPLINE
  5
20f
100
AcDbEntity
  8
Layer_1
 62
7
100
AcDbSpline
 70
8
 71
3
 72
8
 73
4
 74
0
 40
0
 40
0
 40
0
 40
0
 40
1
 40
1
 40
1
 40
1
 10
10.568089
 20
5.374841
 30
0.0
 10
10.557056
 20
5.243054
 30
0.0
 10
10.525523
 20
5.056515
 30
0.0
 10
10.473511
 20
4.815243
 30
0.0
  0
SPLINE
  5
210
100
AcDbEntity
  8
Layer_1
 62
7
100
AcDbSpline
 70
8
 71
3
 72
8
 73
4
 74
0
 40
0
 40
0
 40
0
 40
0
 40
1
 40
1
 40
1
 40
1
 10
10.473511
 20
4.815243
 30
0.0
 10
10.423075
 20
4.573971
 30
0.0
 10
10.370283
 20
4.370217
 30
0.0
 10
10.315118
 20
4.203962
 30
0.0
  0
SPLINE
  5
211
100
AcDbEntity
  8
Layer_1
 62
7
100
AcDbSpline
 70
8
 71
3
 72
8
 73
4
 74
0
 40
0
 40
0
 40
0
 40
0
 40
1
 40
1
 40
1
 40
1
 10
10.315118
 20
4.203962
 30
0.0
 10
10.214246
 20
4.291144
 30
0.0
 10
10.118889
 20
4.401643
 30
0.0
 10
10.029050
 20
4.535457
 30
0.0
  0
SPLINE
  5
212
100
AcDbEntity
  8
Layer_1
 62
7
100
AcDbSpline
 70
8
 71
3
 72
8
 73
4
 74
0
 40
0
 40
0
 40
0
 40
0
 40
1
 40
1
 40
1
 40
1
 10
10.029050
 20
4.535457
 30
0.0
 10
9.954972
 20
4.651024
 30
0.0
 10
9.897446
 20
4.708800
 30
0.0
 10
9.856466
 20
4.708800
 30
0.0
  0
SPLINE
  5
213
100
AcDbEntity
  8
Layer_1
 62
7
100
AcDbSpline
 70
8
 71
3
 72
8
 73
4
 74
0
 40
0
 40
0
 40
0
 40
0
 40
1
 40
1
 40
1
 40
1
 10
9.856466
 20
4.708800
 30
0.0
 10
9.817063
 20
4.708800
 30
0.0
 10
9.737461
 20
4.657100
 30
0.0
 10
9.617675
 20
4.553698
 30
0.0
  0
SPLINE
  5
214
100
AcDbEntity
  8
Layer_1
 62
7
100
AcDbSpline
 70
8
 71
3
 72
8
 73
4
 74
0
 40
0
 40
0
 40
0
 40
0
 40
1
 40
1
 40
1
 40
1
 10
9.617675
 20
4.553698
 30
0.0
 10
9.542020
 20
4.488818
 30
0.0
 10
9.482127
 20
4.423944
 30
0.0
 10
9.437995
 20
4.359064
 30
0.0
  0
SPLINE
  5
215
100
AcDbEntity
  8
Layer_1
 62
7
100
AcDbSpline
 70
8
 71
3
 72
8
 73
4
 74
0
 40
0
 40
0
 40
0
 40
0
 40
1
 40
1
 40
1
 40
1
 10
9.437995
 20
4.359064
 30
0.0
 10
9.393863
 20
4.294184
 30
0.0
 10
9.371800
 20
4.236396
 30
0.0
 10
9.371800
 20
4.185709
 30
0.0
  0
SPLINE
  5
216
100
AcDbEntity
  8
Layer_1
 62
7
100
AcDbSpline
 70
8
 71
3
 72
8
 73
4
 74
0
 40
0
 40
0
 40
0
 40
0
 40
1
 40
1
 40
1
 40
1
 10
9.371800
 20
4.185709
 30
0.0
 10
9.371800
 20
4.181384
 30
0.0
 10
9.371957
 20
4.177054
 30
0.0
 10
9.372198
 20
4.172722
 30
0.0
  0
SPLINE
  5
217
100
AcDbEntity
  8
Layer_1
 62
7
100
AcDbSpline
 70
8
 71
3
 72
8
 73
4
 74
0
 40
0
 40
0
 40
0
 40
0
 40
1
 40
1
 40
1
 40
1
 10
9.372198
 20
4.172722
 30
0.0
 10
9.296103
 20
4.217206
 30
0.0
 10
9.199959
 20
4.239478
 30
0.0
 10
9.083712
 20
4.239478
 30
0.0
  0
SPLINE
  5
218
100
AcDbEntity
  8
Layer_1
 62
7
100
AcDbSpline
 70
8
 71
3
 72
8
 73
4
 74
0
 40
0
 40
0
 40
0
 40
0
 40
1
 40
1
 40
1
 40
1
 10
9.083712
 20
4.239478
 30
0.0
 10
8.987379
 20
4.239478
 30
0.0
 10
8.898131
 20
4.219152
 30
0.0
 10
8.815966
 20
4.178498
 30
0.0
  0
SPLINE
  5
219
100
AcDbEntity
  8
Layer_1
 62
7
100
AcDbSpline
 70
8
 71
3
 72
8
 73
4
 74
0
 40
0
 40
0
 40
0
 40
0
 40
1
 40
1
 40
1
 40
1
 10
8.815966
 20
4.178498
 30
0.0
 10
8.733800
 20
4.139878
 30
0.0
 10
8.692712
 20
4.098207
 30
0.0
 10
8.692712
 20
4.053488
 30
0.0
  0
SPLINE
  5
21a
100
AcDbEntity
  8
Layer_1
 62
7
100
AcDbSpline
 70
8
 71
3
 72
8
 73
4
 74
0
 40
0
 40
0
 40
0
 40
0
 40
1
 40
1
 40
1
 40
1
 10
8.692712
 20
4.053488
 30
0.0
 10
8.692712
 20
4.025031
 30
0.0
 10
8.708998
 20
3.991494
 30
0.0
 10
8.741581
 20
3.952873
 30
0.0
  0
SPLINE
  5
21b
100
AcDbEntity
  8
Layer_1
 62
7
100
AcDbSpline
 70
8
 71
3
 72
8
 73
4
 74
0
 40
0
 40
0
 40
0
 40
0
 40
1
 40
1
 40
1
 40
1
 10
8.741581
 20
3.952873
 30
0.0
 10
8.784081
 20
3.900024
 30
0.0
 10
8.805334
 20
3.852257
 30
0.0
 10
8.805334
 20
3.809570
 30
0.0
  0
SPLINE
  5
21c
100
AcDbEntity
  8
Layer_1
 62
7
100
AcDbSpline
 70
8
 71
3
 72
8
 73
4
 74
0
 40
0
 40
0
 40
0
 40
0
 40
1
 40
1
 40
1
 40
1
 10
8.805334
 20
3.809570
 30
0.0
 10
8.805334
 20
3.770950
 30
0.0
 10
8.763549
 20
3.630691
 30
0.0
 10
8.679967
 20
3.388803
 30
0.0
  0
SPLINE
  5
21d
100
AcDbEntity
  8
Layer_1
 62
7
100
AcDbSpline
 70
8
 71
3
 72
8
 73
4
 74
0
 40
0
 40
0
 40
0
 40
0
 40
1
 40
1
 40
1
 40
1
 10
8.679967
 20
3.388803
 30
0.0
 10
8.596384
 20
3.148948
 30
0.0
 10
8.435594
 20
2.701760
 30
0.0
 10
8.197597
 20
2.047241
 30
0.0
  0
LWPOLYLINE
  5
21e
100
AcDbEntity
  8
Layer_1
 62
7
100
AcDbPolyline
 90
1
 70
1
 10
4.962730
 20
6.353225
 30
0.0
  0
SPLINE
  5
21f
100
AcDbEntity
  8
Layer_1
 62
7
100
AcDbSpline
 70
8
 71
3
 72
8
 73
4
 74
0
 40
0
 40
0
 40
0
 40
0
 40
1
 40
1
 40
1
 40
1
 10
8.095594
 20
1.772827
 30
0.0
 10
7.941180
 20
1.352065
 30
0.0
 10
7.825722
 20
1.060385
 30
0.0
 10
7.749224
 20
0.897770
 30
0.0
  0
LWPOLYLINE
  5
220
100
AcDbEntity
  8
Layer_1
 62
7
100
AcDbPolyline
 90
2
 70
0
 10
8.197597
 20
2.047241
 30
0.0
 10
8.095594
 20
1.772827
 30
0.0
  0
SPLINE
  5
221
100
AcDbEntity
  8
Layer_1
 62
7
100
AcDbSpline
 70
8
 71
3
 72
8
 73
4
 74
0
 40
0
 40
0
 40
0
 40
0
 40
1
 40
1
 40
1
 40
1
 10
7.625971
 20
0.623356
 30
0.0
 10
7.618758
 20
0.608039
 30
0.0
 10
7.612925
 20
0.595889
 30
0.0
 10
7.606227
 20
0.581752
 30
0.0
  0
SPLINE
  5
222
100
AcDbEntity
  8
Layer_1
 62
7
100
AcDbSpline
 70
8
 71
3
 72
8
 73
4
 74
0
 40
0
 40
0
 40
0
 40
0
 40
1
 40
1
 40
1
 40
1
 10
7.606227
 20
0.581752
 30
0.0
 10
7.567259
 20
0.541590
 30
0.0
 10
7.506461
 20
0.489681
 30
0.0
 10
7.483933
 20
0.529886
 30
0.0
  0
SPLINE
  5
223
100
AcDbEntity
  8
Layer_1
 62
7
100
AcDbSpline
 70
8
 71
3
 72
8
 73
4
 74
0
 40
0
 40
0
 40
0
 40
0
 40
1
 40
1
 40
1
 40
1
 10
7.483933
 20
0.529886
 30
0.0
 10
7.238850
 20
0.711956
 30
0.0
 10
7.270790
 20
0.734286
 30
0.0
 10
7.202664
 20
0.837952
 30
0.0
  0
SPLINE
  5
224
100
AcDbEntity
  8
Layer_1
 62
7
100
AcDbSpline
 70
8
 71
3
 72
8
 73
4
 74
0
 40
0
 40
0
 40
0
 40
0
 40
1
 40
1
 40
1
 40
1
 10
7.202664
 20
0.837952
 30
0.0
 10
7.142501
 20
0.929501
 30
0.0
 10
7.140871
 20
1.022507
 30
0.0
 10
7.124962
 20
1.170933
 30
0.0
  0
SPLINE
  5
225
100
AcDbEntity
  8
Layer_1
 62
7
100
AcDbSpline
 70
8
 71
3
 72
8
 73
4
 74
0
 40
0
 40
0
 40
0
 40
0
 40
1
 40
1
 40
1
 40
1
 10
7.124962
 20
1.170933
 30
0.0
 10
7.150670
 20
1.234311
 30
0.0
 10
7.175006
 20
1.299994
 30
0.0
 10
7.197900
 20
1.368096
 30
0.0
  0
SPLINE
  5
226
100
AcDbEntity
  8
Layer_1
 62
7
100
AcDbSpline
 70
8
 71
3
 72
8
 73
4
 74
0
 40
0
 40
0
 40
0
 40
0
 40
1
 40
1
 40
1
 40
1
 10
7.197900
 20
1.368096
 30
0.0
 10
7.335316
 20
1.774631
 30
0.0
 10
7.404020
 20
2.217745
 30
0.0
 10
7.404020
 20
2.697454
 30
0.0
  0
SPLINE
  5
227
100
AcDbEntity
  8
Layer_1
 62
7
100
AcDbSpline
 70
8
 71
3
 72
8
 73
4
 74
0
 40
0
 40
0
 40
0
 40
0
 40
1
 40
1
 40
1
 40
1
 10
7.404020
 20
2.697454
 30
0.0
 10
7.404020
 20
2.898689
 30
0.0
 10
7.389153
 20
3.088751
 30
0.0
 10
7.359404
 20
3.267626
 30
0.0
  0
SPLINE
  5
228
100
AcDbEntity
  8
Layer_1
 62
7
100
AcDbSpline
 70
8
 71
3
 72
8
 73
4
 74
0
 40
0
 40
0
 40
0
 40
0
 40
1
 40
1
 40
1
 40
1
 10
7.359404
 20
3.267626
 30
0.0
 10
7.329655
 20
3.448533
 30
0.0
 10
7.292115
 20
3.572527
 30
0.0
 10
7.246782
 20
3.639605
 30
0.0
  0
SPLINE
  5
229
100
AcDbEntity
  8
Layer_1
 62
7
100
AcDbSpline
 70
8
 71
3
 72
8
 73
4
 74
0
 40
0
 40
0
 40
0
 40
0
 40
1
 40
1
 40
1
 40
1
 10
7.246782
 20
3.639605
 30
0.0
 10
7.228365
 20
3.672128
 30
0.0
 10
7.201447
 20
3.698550
 30
0.0
 10
7.166031
 20
3.718877
 30
0.0
  0
SPLINE
  5
22a
100
AcDbEntity
  8
Layer_1
 62
7
100
AcDbSpline
 70
8
 71
3
 72
8
 73
4
 74
0
 40
0
 40
0
 40
0
 40
0
 40
1
 40
1
 40
1
 40
1
 10
7.166031
 20
3.718877
 30
0.0
 10
7.132031
 20
3.741237
 30
0.0
 10
7.099447
 20
3.752411
 30
0.0
 10
7.068281
 20
3.752411
 30
0.0
  0
SPLINE
  5
22b
100
AcDbEntity
  8
Layer_1
 62
7
100
AcDbSpline
 70
8
 71
3
 72
8
 73
4
 74
0
 40
0
 40
0
 40
0
 40
0
 40
1
 40
1
 40
1
 40
1
 10
7.068281
 20
3.752411
 30
0.0
 10
7.014448
 20
3.752411
 30
0.0
 10
6.940776
 20
3.713796
 30
0.0
 10
6.847278
 20
3.636554
 30
0.0
  0
SPLINE
  5
22c
100
AcDbEntity
  8
Layer_1
 62
7
100
AcDbSpline
 70
8
 71
3
 72
8
 73
4
 74
0
 40
0
 40
0
 40
0
 40
0
 40
1
 40
1
 40
1
 40
1
 10
6.847278
 20
3.636554
 30
0.0
 10
6.753778
 20
3.559313
 30
0.0
 10
6.670906
 20
3.470894
 30
0.0
 10
6.598657
 20
3.371293
 30
0.0
  0
SPLINE
  5
22d
100
AcDbEntity
  8
Layer_1
 62
7
100
AcDbSpline
 70
8
 71
3
 72
8
 73
4
 74
0
 40
0
 40
0
 40
0
 40
0
 40
1
 40
1
 40
1
 40
1
 10
6.598657
 20
3.371293
 30
0.0
 10
6.534907
 20
3.287954
 30
0.0
 10
6.503033
 20
3.204613
 30
0.0
 10
6.503033
 20
3.121273
 30
0.0
  0
SPLINE
  5
22e
100
AcDbEntity
  8
Layer_1
 62
7
100
AcDbSpline
 70
8
 71
3
 72
8
 73
4
 74
0
 40
0
 40
0
 40
0
 40
0
 40
1
 40
1
 40
1
 40
1
 10
6.503033
 20
3.121273
 30
0.0
 10
6.503033
 20
3.076554
 30
0.0
 10
6.527822
 20
2.993213
 30
0.0
 10
6.577406
 20
2.871253
 30
0.0
  0
SPLINE
  5
22f
100
AcDbEntity
  8
Layer_1
 62
7
100
AcDbSpline
 70
8
 71
3
 72
8
 73
4
 74
0
 40
0
 40
0
 40
0
 40
0
 40
1
 40
1
 40
1
 40
1
 10
6.577406
 20
2.871253
 30
0.0
 10
6.710570
 20
2.568385
 30
0.0
 10
6.777157
 20
2.277711
 30
0.0
 10
6.777157
 20
1.999234
 30
0.0
  0
SPLINE
  5
230
100
AcDbEntity
  8
Layer_1
 62
7
100
AcDbSpline
 70
8
 71
3
 72
8
 73
4
 74
0
 40
0
 40
0
 40
0
 40
0
 40
1
 40
1
 40
1
 40
1
 10
6.777157
 20
1.999234
 30
0.0
 10
6.777157
 20
1.844754
 30
0.0
 10
6.756614
 20
1.684167
 30
0.0
 10
6.715531
 20
1.517487
 30
0.0
  0
SPLINE
  5
231
100
AcDbEntity
  8
Layer_1
 62
7
100
AcDbSpline
 70
8
 71
3
 72
8
 73
4
 74
0
 40
0
 40
0
 40
0
 40
0
 40
1
 40
1
 40
1
 40
1
 10
6.715531
 20
1.517487
 30
0.0
 10
6.674448
 20
1.350809
 30
0.0
 10
6.619913
 20
1.199375
 30
0.0
 10
6.551914
 20
1.063185
 30
0.0
  0
SPLINE
  5
232
100
AcDbEntity
  8
Layer_1
 62
7
100
AcDbSpline
 70
8
 71
3
 72
8
 73
4
 74
0
 40
0
 40
0
 40
0
 40
0
 40
1
 40
1
 40
1
 40
1
 10
6.551914
 20
1.063185
 30
0.0
 10
6.485331
 20
0.929030
 30
0.0
 10
6.410241
 20
0.820284
 30
0.0
 10
6.326658
 20
0.736945
 30
0.0
  0
SPLINE
  5
233
100
AcDbEntity
  8
Layer_1
 62
7
100
AcDbSpline
 70
8
 71
3
 72
8
 73
4
 74
0
 40
0
 40
0
 40
0
 40
0
 40
1
 40
1
 40
1
 40
1
 10
6.326658
 20
0.736945
 30
0.0
 10
6.244493
 20
0.653605
 30
0.0
 10
6.163749
 20
0.611935
 30
0.0
 10
6.084416
 20
0.611935
 30
0.0
  0
SPLINE
  5
234
100
AcDbEntity
  8
Layer_1
 62
7
100
AcDbSpline
 70
8
 71
3
 72
8
 73
4
 74
0
 40
0
 40
0
 40
0
 40
0
 40
1
 40
1
 40
1
 40
1
 10
6.084416
 20
0.611935
 30
0.0
 10
5.986667
 20
0.611935
 30
0.0
 10
5.903085
 20
0.656661
 30
0.0
 10
5.833669
 20
0.746098
 30
0.0
  0
SPLINE
  5
235
100
AcDbEntity
  8
Layer_1
 62
7
100
AcDbSpline
 70
8
 71
3
 72
8
 73
4
 74
0
 40
0
 40
0
 40
0
 40
0
 40
1
 40
1
 40
1
 40
1
 10
5.833669
 20
0.746098
 30
0.0
 10
5.764254
 20
0.837568
 30
0.0
 10
5.711835
 20
0.971717
 30
0.0
 10
5.676419
 20
1.148560
 30
0.0
  0
SPLINE
  5
236
100
AcDbEntity
  8
Layer_1
 62
7
100
AcDbSpline
 70
8
 71
3
 72
8
 73
4
 74
0
 40
0
 40
0
 40
0
 40
0
 40
1
 40
1
 40
1
 40
1
 10
5.676419
 20
1.148560
 30
0.0
 10
5.641003
 20
1.327434
 30
0.0
 10
5.623297
 20
1.550017
 30
0.0
 10
5.623297
 20
1.816296
 30
0.0
  0
SPLINE
  5
237
100
AcDbEntity
  8
Layer_1
 62
7
100
AcDbSpline
 70
8
 71
3
 72
8
 73
4
 74
0
 40
0
 40
0
 40
0
 40
0
 40
1
 40
1
 40
1
 40
1
 10
5.623297
 20
1.816296
 30
0.0
 10
5.623297
 20
2.005335
 30
0.0
 10
5.633918
 20
2.159823
 30
0.0
 10
5.655168
 20
2.279750
 30
0.0
  0
SPLINE
  5
238
100
AcDbEntity
  8
Layer_1
 62
7
100
AcDbSpline
 70
8
 71
3
 72
8
 73
4
 74
0
 40
0
 40
0
 40
0
 40
0
 40
1
 40
1
 40
1
 40
1
 10
5.655168
 20
2.279750
 30
0.0
 10
5.672167
 20
2.415940
 30
0.0
 10
5.699796
 20
2.545011
 30
0.0
 10
5.738046
 20
2.666971
 30
0.0
  0
SPLINE
  5
239
100
AcDbEntity
  8
Layer_1
 62
7
100
AcDbSpline
 70
8
 71
3
 72
8
 73
4
 74
0
 40
0
 40
0
 40
0
 40
0
 40
1
 40
1
 40
1
 40
1
 10
5.738046
 20
2.666971
 30
0.0
 10
5.789045
 20
2.835683
 30
0.0
 10
5.836507
 20
2.964754
 30
0.0
 10
5.880424
 20
3.054192
 30
0.0
  0
SPLINE
  5
23a
100
AcDbEntity
  8
Layer_1
 62
7
100
AcDbSpline
 70
8
 71
3
 72
8
 73
4
 74
0
 40
0
 40
0
 40
0
 40
0
 40
1
 40
1
 40
1
 40
1
 10
5.880424
 20
3.054192
 30
0.0
 10
5.925756
 20
3.145662
 30
0.0
 10
5.997287
 20
3.261522
 30
0.0
 10
6.095036
 20
3.401776
 30
0.0
  0
SPLINE
  5
23b
100
AcDbEntity
  8
Layer_1
 62
7
100
AcDbSpline
 70
8
 71
3
 72
8
 73
4
 74
0
 40
0
 40
0
 40
0
 40
0
 40
1
 40
1
 40
1
 40
1
 10
6.095036
 20
3.401776
 30
0.0
 10
6.174368
 20
3.503409
 30
0.0
 10
6.239536
 20
3.573539
 30
0.0
 10
6.290535
 20
3.612160
 30
0.0
  0
SPLINE
  5
23c
100
AcDbEntity
  8
Layer_1
 62
7
100
AcDbSpline
 70
8
 71
3
 72
8
 73
4
 74
0
 40
0
 40
0
 40
0
 40
0
 40
1
 40
1
 40
1
 40
1
 10
6.290535
 20
3.612160
 30
0.0
 10
6.341535
 20
3.652813
 30
0.0
 10
6.423698
 20
3.697525
 30
0.0
 10
6.537030
 20
3.746309
 30
0.0
  0
SPLINE
  5
23d
100
AcDbEntity
  8
Layer_1
 62
7
100
AcDbSpline
 70
8
 71
3
 72
8
 73
4
 74
0
 40
0
 40
0
 40
0
 40
0
 40
1
 40
1
 40
1
 40
1
 10
6.537030
 20
3.746309
 30
0.0
 10
6.641862
 20
3.788996
 30
0.0
 10
6.716953
 20
3.827624
 30
0.0
 10
6.762286
 20
3.862180
 30
0.0
  0
SPLINE
  5
23e
100
AcDbEntity
  8
Layer_1
 62
7
100
AcDbSpline
 70
8
 71
3
 72
8
 73
4
 74
0
 40
0
 40
0
 40
0
 40
0
 40
1
 40
1
 40
1
 40
1
 10
6.762286
 20
3.862180
 30
0.0
 10
6.809035
 20
3.896735
 30
0.0
 10
6.863570
 20
3.955677
 30
0.0
 10
6.925903
 20
4.039016
 30
0.0
  0
SPLINE
  5
23f
100
AcDbEntity
  8
Layer_1
 62
7
100
AcDbSpline
 70
8
 71
3
 72
8
 73
4
 74
0
 40
0
 40
0
 40
0
 40
0
 40
1
 40
1
 40
1
 40
1
 10
6.925903
 20
4.039016
 30
0.0
 10
6.959902
 20
4.097963
 30
0.0
 10
6.976910
 20
4.141670
 30
0.0
 10
6.976910
 20
4.170128
 30
0.0
  0
SPLINE
  5
240
100
AcDbEntity
  8
Layer_1
 62
7
100
AcDbSpline
 70
8
 71
3
 72
8
 73
4
 74
0
 40
0
 40
0
 40
0
 40
0
 40
1
 40
1
 40
1
 40
1
 10
6.976910
 20
4.170128
 30
0.0
 10
6.976910
 20
4.206347
 30
0.0
 10
6.955927
 20
4.233327
 30
0.0
 10
6.914068
 20
4.251108
 30
0.0
  0
SPLINE
  5
241
100
AcDbEntity
  8
Layer_1
 62
7
100
AcDbSpline
 70
8
 71
3
 72
8
 73
4
 74
0
 40
0
 40
0
 40
0
 40
0
 40
1
 40
1
 40
1
 40
1
 10
6.914068
 20
4.251108
 30
0.0
 10
7.022302
 20
4.282526
 30
0.0
 10
7.073271
 20
4.307326
 30
0.0
 10
7.219674
 20
4.387996
 30
0.0
  0
SPLINE
  5
242
100
AcDbEntity
  8
Layer_1
 62
7
100
AcDbSpline
 70
8
 71
3
 72
8
 73
4
 74
0
 40
0
 40
0
 40
0
 40
0
 40
1
 40
1
 40
1
 40
1
 10
7.219674
 20
4.387996
 30
0.0
 10
7.361463
 20
4.466122
 30
0.0
 10
7.438967
 20
4.476320
 30
0.0
 10
7.647514
 20
4.444294
 30
0.0
  0
SPLINE
  5
243
100
AcDbEntity
  8
Layer_1
 62
7
100
AcDbSpline
 70
8
 71
3
 72
8
 73
4
 74
0
 40
0
 40
0
 40
0
 40
0
 40
1
 40
1
 40
1
 40
1
 10
7.647514
 20
4.444294
 30
0.0
 10
7.741999
 20
4.429784
 30
0.0
 10
7.869756
 20
4.417850
 30
0.0
 10
7.931419
 20
4.417775
 30
0.0
  0
SPLINE
  5
244
100
AcDbEntity
  8
Layer_1
 62
7
100
AcDbSpline
 70
8
 71
3
 72
8
 73
4
 74
0
 40
0
 40
0
 40
0
 40
0
 40
1
 40
1
 40
1
 40
1
 10
7.931419
 20
4.417775
 30
0.0
 10
8.008402
 20
4.417696
 30
0.0
 10
8.111209
 20
4.431455
 30
0.0
 10
8.259504
 20
4.461726
 30
0.0
  0
SPLINE
  5
245
100
AcDbEntity
  8
Layer_1
 62
7
100
AcDbSpline
 70
8
 71
3
 72
8
 73
4
 74
0
 40
0
 40
0
 40
0
 40
0
 40
1
 40
1
 40
1
 40
1
 10
8.259504
 20
4.461726
 30
0.0
 10
8.592777
 20
4.529757
 30
0.0
 10
8.759436
 20
4.619888
 30
0.0
 10
8.919500
 20
4.818672
 30
0.0
  0
SPLINE
  5
246
100
AcDbEntity
  8
Layer_1
 62
7
100
AcDbSpline
 70
8
 71
3
 72
8
 73
4
 74
0
 40
0
 40
0
 40
0
 40
0
 40
1
 40
1
 40
1
 40
1
 10
8.919500
 20
4.818672
 30
0.0
 10
9.010043
 20
4.931117
 30
0.0
 10
9.063180
 20
5.065239
 30
0.0
 10
9.086507
 20
5.240235
 30
0.0
  0
SPLINE
  5
247
100
AcDbEntity
  8
Layer_1
 62
7
100
AcDbSpline
 70
8
 71
3
 72
8
 73
4
 74
0
 40
0
 40
0
 40
0
 40
0
 40
1
 40
1
 40
1
 40
1
 10
9.086507
 20
5.240235
 30
0.0
 10
9.086586
 20
5.240589
 30
0.0
 10
9.086586
 20
5.240924
 30
0.0
 10
9.086665
 20
5.241278
 30
0.0
  0
SPLINE
  5
248
100
AcDbEntity
  8
Layer_1
 62
7
100
AcDbSpline
 70
8
 71
3
 72
8
 73
4
 74
0
 40
0
 40
0
 40
0
 40
0
 40
1
 40
1
 40
1
 40
1
 10
9.086665
 20
5.241278
 30
0.0
 10
9.141464
 20
5.131488
 30
0.0
 10
9.208904
 20
5.042151
 30
0.0
 10
9.289077
 20
4.973396
 30
0.0
  0
SPLINE
  5
249
100
AcDbEntity
  8
Layer_1
 62
7
100
AcDbSpline
 70
8
 71
3
 72
8
 73
4
 74
0
 40
0
 40
0
 40
0
 40
0
 40
1
 40
1
 40
1
 40
1
 10
9.289077
 20
4.973396
 30
0.0
 10
9.407287
 20
4.872022
 30
0.0
 10
9.549138
 20
4.821332
 30
0.0
 10
9.714632
 20
4.821332
 30
0.0
  0
SPLINE
  5
24a
100
AcDbEntity
  8
Layer_1
 62
7
100
AcDbSpline
 70
8
 71
3
 72
8
 73
4
 74
0
 40
0
 40
0
 40
0
 40
0
 40
1
 40
1
 40
1
 40
1
 10
9.714632
 20
4.821332
 30
0.0
 10
9.853331
 20
4.821332
 30
0.0
 10
9.990448
 20
4.864923
 30
0.0
 10
10.125995
 20
4.952105
 30
0.0
  0
SPLINE
  5
24b
100
AcDbEntity
  8
Layer_1
 62
7
100
AcDbSpline
 70
8
 71
3
 72
8
 73
4
 74
0
 40
0
 40
0
 40
0
 40
0
 40
1
 40
1
 40
1
 40
1
 10
10.125995
 20
4.952105
 30
0.0
 10
10.263119
 20
5.041315
 30
0.0
 10
10.410498
 20
5.182229
 30
0.0
 10
10.568111
 20
5.374841
 30
0.0
  0
LWPOLYLINE
  5
24c
100
AcDbEntity
  8
Layer_1
 62
7
100
AcDbPolyline
 90
2
 70
0
 10
7.749224
 20
0.897770
 30
0.0
 10
7.625971
 20
0.623356
 30
0.0
  0
SPLINE
  5
24d
100
AcDbEntity
  8
Layer_1
 62
7
100
AcDbSpline
 70
8
 71
3
 72
8
 73
4
 74
0
 40
0
 40
0
 40
0
 40
0
 40
1
 40
1
 40
1
 40
1
 10
3.597868
 20
3.981348
 30
0.0
 10
3.581468
 20
3.958193
 30
0.0
 10
3.562561
 20
3.928398
 30
0.0
 10
3.540834
 20
3.891111
 30
0.0
  0
SPLINE
  5
24e
100
AcDbEntity
  8
Layer_1
 62
7
100
AcDbSpline
 70
8
 71
3
 72
8
 73
4
 74
0
 40
0
 40
0
 40
0
 40
0
 40
1
 40
1
 40
1
 40
1
 10
3.540834
 20
3.891111
 30
0.0
 10
3.378355
 20
3.565884
 30
0.0
 10
3.116244
 20
2.861559
 30
0.0
 10
2.754498
 20
1.778146
 30
0.0
  0
LWPOLYLINE
  5
24f
100
AcDbEntity
  8
Layer_1
 62
7
100
AcDbPolyline
 90
1
 70
1
 10
10.568111
 20
5.374841
 30
0.0
  0
SPLINE
  5
250
100
AcDbEntity
  8
Layer_1
 62
7
100
AcDbSpline
 70
8
 71
3
 72
8
 73
4
 74
0
 40
0
 40
0
 40
0
 40
0
 40
1
 40
1
 40
1
 40
1
 10
2.708521
 20
1.640946
 30
0.0
 10
2.676332
 20
1.697861
 30
0.0
 10
2.651800
 20
1.763918
 30
0.0
 10
2.634939
 20
1.839126
 30
0.0
  0
SPLINE
  5
251
100
AcDbEntity
  8
Layer_1
 62
7
100
AcDbSpline
 70
8
 71
3
 72
8
 73
4
 74
0
 40
0
 40
0
 40
0
 40
0
 40
1
 40
1
 40
1
 40
1
 10
2.634939
 20
1.839126
 30
0.0
 10
2.618078
 20
1.916368
 30
0.0
 10
2.593557
 20
2.086104
 30
0.0
 10
2.561368
 20
2.348319
 30
0.0
  0
SPLINE
  5
252
100
AcDbEntity
  8
Layer_1
 62
7
100
AcDbSpline
 70
8
 71
3
 72
8
 73
4
 74
0
 40
0
 40
0
 40
0
 40
0
 40
1
 40
1
 40
1
 40
1
 10
2.561368
 20
2.348319
 30
0.0
 10
2.561368
 20
2.366612
 30
0.0
 10
2.556762
 20
2.404210
 30
0.0
 10
2.547565
 20
2.461125
 30
0.0
  0
SPLINE
  5
253
100
AcDbEntity
  8
Layer_1
 62
7
100
AcDbSpline
 70
8
 71
3
 72
8
 73
4
 74
0
 40
0
 40
0
 40
0
 40
0
 40
1
 40
1
 40
1
 40
1
 10
2.547565
 20
2.461125
 30
0.0
 10
2.547565
 20
2.477386
 30
0.0
 10
2.546802
 20
2.490597
 30
0.0
 10
2.545270
 20
2.500761
 30
0.0
  0
SPLINE
  5
254
100
AcDbEntity
  8
Layer_1
 62
7
100
AcDbSpline
 70
8
 71
3
 72
8
 73
4
 74
0
 40
0
 40
0
 40
0
 40
0
 40
1
 40
1
 40
1
 40
1
 10
2.545270
 20
2.500761
 30
0.0
 10
2.543739
 20
2.510924
 30
0.0
 10
2.542211
 20
2.522112
 30
0.0
 10
2.540677
 20
2.534308
 30
0.0
  0
SPLINE
  5
255
100
AcDbEntity
  8
Layer_1
 62
7
100
AcDbSpline
 70
8
 71
3
 72
8
 73
4
 74
0
 40
0
 40
0
 40
0
 40
0
 40
1
 40
1
 40
1
 40
1
 10
2.540677
 20
2.534308
 30
0.0
 10
2.539146
 20
2.548537
 30
0.0
 10
2.536843
 20
2.567844
 30
0.0
 10
2.533776
 20
2.592237
 30
0.0
  0
SPLINE
  5
256
100
AcDbEntity
  8
Layer_1
 62
7
100
AcDbSpline
 70
8
 71
3
 72
8
 73
4
 74
0
 40
0
 40
0
 40
0
 40
0
 40
1
 40
1
 40
1
 40
1
 10
2.533776
 20
2.592237
 30
0.0
 10
2.486258
 20
3.023162
 30
0.0
 10
2.438745
 20
3.351435
 30
0.0
 10
2.391228
 20
3.577061
 30
0.0
  0
SPLINE
  5
257
100
AcDbEntity
  8
Layer_1
 62
7
100
AcDbSpline
 70
8
 71
3
 72
8
 73
4
 74
0
 40
0
 40
0
 40
0
 40
0
 40
1
 40
1
 40
1
 40
1
 10
2.391228
 20
3.577061
 30
0.0
 10
2.359780
 20
3.727729
 30
0.0
 10
2.326632
 20
3.845244
 30
0.0
 10
2.291825
 20
3.930030
 30
0.0
  0
SPLINE
  5
258
100
AcDbEntity
  8
Layer_1
 62
7
100
AcDbSpline
 70
8
 71
3
 72
8
 73
4
 74
0
 40
0
 40
0
 40
0
 40
0
 40
1
 40
1
 40
1
 40
1
 10
2.291825
 20
3.930030
 30
0.0
 10
2.305445
 20
3.925529
 30
0.0
 10
2.319320
 20
3.921079
 30
0.0
 10
2.333768
 20
3.916744
 30
0.0
  0
SPLINE
  5
259
100
AcDbEntity
  8
Layer_1
 62
7
100
AcDbSpline
 70
8
 71
3
 72
8
 73
4
 74
0
 40
0
 40
0
 40
0
 40
0
 40
1
 40
1
 40
1
 40
1
 10
2.333768
 20
3.916744
 30
0.0
 10
2.506264
 20
3.865450
 30
0.0
 10
2.696319
 20
3.839806
 30
0.0
 10
2.903925
 20
3.839806
 30
0.0
  0
SPLINE
  5
25a
100
AcDbEntity
  8
Layer_1
 62
7
100
AcDbSpline
 70
8
 71
3
 72
8
 73
4
 74
0
 40
0
 40
0
 40
0
 40
0
 40
1
 40
1
 40
1
 40
1
 10
2.903925
 20
3.839806
 30
0.0
 10
3.154835
 20
3.839806
 30
0.0
 10
3.386142
 20
3.887001
 30
0.0
 10
3.597869
 20
3.981348
 30
0.0
  0
LWPOLYLINE
  5
25b
100
AcDbEntity
  8
Layer_1
 62
7
100
AcDbPolyline
 90
2
 70
0
 10
2.754498
 20
1.778146
 30
0.0
 10
2.708521
 20
1.640946
 30
0.0
  0
SPLINE
  5
25c
100
AcDbEntity
  8
Layer_1
 62
7
100
AcDbSpline
 70
8
 71
3
 72
8
 73
4
 74
0
 40
0
 40
0
 40
0
 40
0
 40
1
 40
1
 40
1
 40
1
 10
9.573447
 20
3.876156
 30
0.0
 10
9.634063
 20
3.830207
 30
0.0
 10
9.703938
 20
3.790426
 30
0.0
 10
9.783175
 20
3.756896
 30
0.0
  0
SPLINE
  5
25d
100
AcDbEntity
  8
Layer_1
 62
7
100
AcDbSpline
 70
8
 71
3
 72
8
 73
4
 74
0
 40
0
 40
0
 40
0
 40
0
 40
1
 40
1
 40
1
 40
1
 10
9.783175
 20
3.756896
 30
0.0
 10
9.904537
 20
3.706209
 30
0.0
 10
10.023531
 20
3.680871
 30
0.0
 10
10.140165
 20
3.680871
 30
0.0
  0
SPLINE
  5
25e
100
AcDbEntity
  8
Layer_1
 62
7
100
AcDbSpline
 70
8
 71
3
 72
8
 73
4
 74
0
 40
0
 40
0
 40
0
 40
0
 40
1
 40
1
 40
1
 40
1
 10
10.140165
 20
3.680871
 30
0.0
 10
10.282017
 20
3.680871
 30
0.0
 10
10.420720
 20
3.712284
 30
0.0
 10
10.556267
 20
3.775137
 30
0.0
  0
SPLINE
  5
25f
100
AcDbEntity
  8
Layer_1
 62
7
100
AcDbSpline
 70
8
 71
3
 72
8
 73
4
 74
0
 40
0
 40
0
 40
0
 40
0
 40
1
 40
1
 40
1
 40
1
 10
10.556267
 20
3.775137
 30
0.0
 10
10.597328
 20
3.794176
 30
0.0
 10
10.635300
 20
3.814725
 30
0.0
 10
10.670286
 20
3.836742
 30
0.0
  0
SPLINE
  5
260
100
AcDbEntity
  8
Layer_1
 62
7
100
AcDbSpline
 70
8
 71
3
 72
8
 73
4
 74
0
 40
0
 40
0
 40
0
 40
0
 40
1
 40
1
 40
1
 40
1
 10
10.670286
 20
3.836742
 30
0.0
 10
10.518647
 20
3.485102
 30
0.0
 10
10.287306
 20
2.805390
 30
0.0
 10
9.976196
 20
1.797221
 30
0.0
  0
LWPOLYLINE
  5
261
100
AcDbEntity
  8
Layer_1
 62
7
100
AcDbPolyline
 90
1
 70
1
 10
3.597869
 20
3.981348
 30
0.0
  0
SPLINE
  5
262
100
AcDbEntity
  8
Layer_1
 62
7
100
AcDbSpline
 70
8
 71
3
 72
8
 73
4
 74
0
 40
0
 40
0
 40
0
 40
0
 40
1
 40
1
 40
1
 40
1
 10
9.933706
 20
1.660021
 30
0.0
 10
9.903956
 20
1.716936
 30
0.0
 10
9.881283
 20
1.782992
 30
0.0
 10
9.865700
 20
1.858201
 30
0.0
  0
SPLINE
  5
263
100
AcDbEntity
  8
Layer_1
 62
7
100
AcDbSpline
 70
8
 71
3
 72
8
 73
4
 74
0
 40
0
 40
0
 40
0
 40
0
 40
1
 40
1
 40
1
 40
1
 10
9.865700
 20
1.858201
 30
0.0
 10
9.850117
 20
1.935442
 30
0.0
 10
9.827456
 20
2.105166
 30
0.0
 10
9.797707
 20
2.367380
 30
0.0
  0
SPLINE
  5
264
100
AcDbEntity
  8
Layer_1
 62
7
100
AcDbSpline
 70
8
 71
3
 72
8
 73
4
 74
0
 40
0
 40
0
 40
0
 40
0
 40
1
 40
1
 40
1
 40
1
 10
9.797707
 20
2.367380
 30
0.0
 10
9.797707
 20
2.385674
 30
0.0
 10
9.793449
 20
2.423285
 30
0.0
 10
9.784949
 20
2.480200
 30
0.0
  0
SPLINE
  5
265
100
AcDbEntity
  8
Layer_1
 62
7
100
AcDbSpline
 70
8
 71
3
 72
8
 73
4
 74
0
 40
0
 40
0
 40
0
 40
0
 40
1
 40
1
 40
1
 40
1
 10
9.784949
 20
2.480200
 30
0.0
 10
9.784949
 20
2.496461
 30
0.0
 10
9.784241
 20
2.509672
 30
0.0
 10
9.782823
 20
2.519835
 30
0.0
  0
SPLINE
  5
266
100
AcDbEntity
  8
Layer_1
 62
7
100
AcDbSpline
 70
8
 71
3
 72
8
 73
4
 74
0
 40
0
 40
0
 40
0
 40
0
 40
1
 40
1
 40
1
 40
1
 10
9.782823
 20
2.519835
 30
0.0
 10
9.781410
 20
2.529999
 30
0.0
 10
9.780000
 20
2.541174
 30
0.0
 10
9.778582
 20
2.553370
 30
0.0
  0
SPLINE
  5
267
100
AcDbEntity
  8
Layer_1
 62
7
100
AcDbSpline
 70
8
 71
3
 72
8
 73
4
 74
0
 40
0
 40
0
 40
0
 40
0
 40
1
 40
1
 40
1
 40
1
 10
9.778582
 20
2.553370
 30
0.0
 10
9.777169
 20
2.567598
 30
0.0
 10
9.775035
 20
2.586919
 30
0.0
 10
9.772204
 20
2.611311
 30
0.0
  0
SPLINE
  5
268
100
AcDbEntity
  8
Layer_1
 62
7
100
AcDbSpline
 70
8
 71
3
 72
8
 73
4
 74
0
 40
0
 40
0
 40
0
 40
0
 40
1
 40
1
 40
1
 40
1
 10
9.772204
 20
2.611311
 30
0.0
 10
9.728287
 20
3.042237
 30
0.0
 10
9.684373
 20
3.370510
 30
0.0
 10
9.640457
 20
3.596136
 30
0.0
  0
SPLINE
  5
269
100
AcDbEntity
  8
Layer_1
 62
7
100
AcDbSpline
 70
8
 71
3
 72
8
 73
4
 74
0
 40
0
 40
0
 40
0
 40
0
 40
1
 40
1
 40
1
 40
1
 10
9.640457
 20
3.596136
 30
0.0
 10
9.618970
 20
3.707523
 30
0.0
 10
9.596631
 20
3.800777
 30
0.0
 10
9.573448
 20
3.876156
 30
0.0
  0
LWPOLYLINE
  5
26a
100
AcDbEntity
  8
Layer_1
 62
7
100
AcDbPolyline
 90
2
 70
0
 10
9.976196
 20
1.797221
 30
0.0
 10
9.933706
 20
1.660021
 30
0.0
  0
LWPOLYLINE
  5
26b
100
AcDbEntity
  8
Layer_1
 62
7
100
AcDbPolyline
 90
1
 70
1
 10
9.573448
 20
3.876156
 30
0.0
  0
ENDSEC
  0
SECTION
  2
OBJECTS
  0
DICTIONARY
  5
C
330
0
100
AcDbDictionary
  3
ACAD_GROUP
350
D
  3
ACAD_MLINESTYLE
350
17
  0
DICTIONARY
  5
D
330
C
100
AcDbDictionary
  0
DICTIONARY
  5
1A
330
C
100
AcDbDictionary
  0
DICTIONARY
  5
17
330
C
100
AcDbDictionary
  3
STANDARD
350
18
  0
DICTIONARY
  5
19
330
C
100
AcDbDictionary
  0
ENDSEC
  0
EOF
