  0
SECTION
  2
HEADER
  9
$ACADVER
  1
AC1014
  9
$HANDSEED
  5
FFFF
  9
$MEASUREMENT
 70
     1
  0
ENDSEC
  0
SECTION
  2
TABLES
  0
TABLE
  2
VPORT
  5
8
330
0
100
AcDbSymbolTable
 70
     4
  0
VPORT
  5
2E
330
8
100
AcDbSymbolTableRecord
100
AcDbViewportTableRecord
  2
*ACTIVE
 70
     0
 10
0.0
 20
0.0
 11
1.0
 21
1.0
 12
210.0
 22
148.5
 13
0.0
 23
0.0
 14
10.0
 24
10.0
 15
10.0
 25
10.0
 16
0.0
 26
0.0
 36
1.0
 17
0.0
 27
0.0
 37
0.0
 40
341.0
 41
1.24
 42
50.0
 43
0.0
 44
0.0
 50
0.0
 51
0.0
 71
     0
 72
   100
 73
     1
 74
     3
 75
     0
 76
     0
 77
     0
 78
     0
  0
ENDTAB
  0
TABLE
  2
LTYPE
  5
5
330
0
100
AcDbSymbolTable
 70
     1
  0
LTYPE
  5
14
330
5
100
AcDbSymbolTableRecord
100
AcDbLinetypeTableRecord
  2
BYBLOCK
 70
     0
  3

 72
    65
 73
     0
 40
0.0
  0
LTYPE
  5
15
330
5
100
AcDbSymbolTableRecord
100
AcDbLinetypeTableRecord
  2
BYLAYER
 70
     0
  3

 72
    65
 73
     0
 40
0.0
  0
LTYPE
  5
16
330
5
100
AcDbSymbolTableRecord
100
AcDbLinetypeTableRecord
  2
CONTINUOUS
 70
     0
  3
Solid line
 72
    65
 73
     0
 40
0.0
  0
ENDTAB
  0
TABLE
  2
LAYER
  5
2
100
AcDbSymbolTable
 70
2
  0
LAYER
  5
50
100
AcDbSymbolTableRecord
100
AcDbLayerTableRecord
  2
0
 70
0
  6
CONTINUOUS
  0
LAYER
  5
51
100
AcDbSymbolTableRecord
100
AcDbLayerTableRecord
  2
Ebene_1
 70
0
  6
CONTINUOUS
  0
ENDTAB
  0
TABLE
  2
STYLE
  5
3
330
0
100
AcDbSymbolTable
 70
     1
  0
STYLE
  5
11
330
3
100
AcDbSymbolTableRecord
100
AcDbTextStyleTableRecord
  2
STANDARD
 70
     0
 40
0.0
 41
1.0
 50
0.0
 71
     0
 42
2.5
  3
txt
  4

  0
ENDTAB
  0
TABLE
  2
VIEW
  5
6
330
0
100
AcDbSymbolTable
 70
     0
  0
ENDTAB
  0
TABLE
  2
UCS
  5
7
330
0
100
AcDbSymbolTable
 70
     0
  0
ENDTAB
  0
TABLE
  2
APPID
  5
9
330
0
100
AcDbSymbolTable
 70
     2
  0
APPID
  5
12
330
9
100
AcDbSymbolTableRecord
100
AcDbRegAppTableRecord
  2
ACAD
 70
     0
  0
ENDTAB
  0
TABLE
  2
DIMSTYLE
  5
A
330
0
100
AcDbSymbolTable
 70
     1
  0
DIMSTYLE
105
27
330
A
100
AcDbSymbolTableRecord
100
AcDbDimStyleTableRecord
  2
ISO-25
 70
     0
  3

  4

  5

  6

  7

 40
1.0
 41
2.5
 42
0.625
 43
3.75
 44
1.25
 45
0.0
 46
0.0
 47
0.0
 48
0.0
140
2.5
141
2.5
142
0.0
143
0.03937007874016
144
1.0
145
0.0
146
1.0
147
0.625
 71
     0
 72
     0
 73
     0
 74
     0
 75
     0
 76
     0
 77
     1
 78
     8
170
     0
171
     3
172
     1
173
     0
174
     0
175
     0
176
     0
177
     0
178
     0
270
     2
271
     2
272
     2
273
     2
274
     3
340
11
275
     0
280
     0
281
     0
282
     0
283
     0
284
     8
285
     0
286
     0
287
     3
288
     0
  0
ENDTAB
  0
TABLE
  2
BLOCK_RECORD
  5
1
330
0
100
AcDbSymbolTable
 70
     1
  0
BLOCK_RECORD
  5
1F
330
1
100
AcDbSymbolTableRecord
100
AcDbBlockTableRecord
  2
*MODEL_SPACE
  0
BLOCK_RECORD
  5
1B
330
1
100
AcDbSymbolTableRecord
100
AcDbBlockTableRecord
  2
*PAPER_SPACE
  0
ENDTAB
  0
ENDSEC
  0
SECTION
  2
BLOCKS
  0
BLOCK
  5
20
330
1F
100
AcDbEntity
  8
0
100
AcDbBlockBegin
  2
*MODEL_SPACE
 70
     0
 10
0.0
 20
0.0
 30
0.0
  3
*MODEL_SPACE
  1

  0
ENDBLK
  5
21
330
1F
100
AcDbEntity
  8
0
100
AcDbBlockEnd
  0
BLOCK
  5
1C
330
1B
100
AcDbEntity
 67
     1
  8
0
100
AcDbBlockBegin
  2
*PAPER_SPACE
  1

  0
ENDBLK
  5
1D
330
1B
100
AcDbEntity
 67
     1
  8
0
100
AcDbBlockEnd
  0
ENDSEC
  0
SECTION
  2
ENTITIES
  0
SPLINE
  5
100
100
AcDbEntity
  8
Ebene_1
 62
7
100
AcDbSpline
 70
8
 71
3
 72
8
 73
4
 74
0
 40
0
 40
0
 40
0
 40
0
 40
1
 40
1
 40
1
 40
1
 10
128.817277
 20
0.243499
 30
0.0
 10
122.569916
 20
0.862965
 30
0.0
 10
118.637990
 20
1.127541
 30
0.0
 10
115.467869
 20
1.141772
 30
0.0
  0
SPLINE
  5
101
100
AcDbEntity
  8
Ebene_1
 62
7
100
AcDbSpline
 70
8
 71
3
 72
8
 73
4
 74
0
 40
0
 40
0
 40
0
 40
0
 40
1
 40
1
 40
1
 40
1
 10
115.467869
 20
1.141772
 30
0.0
 10
110.159925
 20
1.165623
 30
0.0
 10
97.243233
 20
2.225923
 30
0.0
 10
91.347930
 20
3.121787
 30
0.0
  0
SPLINE
  5
102
100
AcDbEntity
  8
Ebene_1
 62
7
100
AcDbSpline
 70
8
 71
3
 72
8
 73
4
 74
0
 40
0
 40
0
 40
0
 40
0
 40
1
 40
1
 40
1
 40
1
 10
91.347930
 20
3.121787
 30
0.0
 10
87.184980
 20
3.754383
 30
0.0
 10
79.896205
 20
5.252157
 30
0.0
 10
75.854931
 20
6.305428
 30
0.0
  0
SPLINE
  5
103
100
AcDbEntity
  8
Ebene_1
 62
7
100
AcDbSpline
 70
8
 71
3
 72
8
 73
4
 74
0
 40
0
 40
0
 40
0
 40
0
 40
1
 40
1
 40
1
 40
1
 10
75.854931
 20
6.305428
 30
0.0
 10
67.157400
 20
8.572266
 30
0.0
 10
62.242117
 20
11.190920
 30
0.0
 10
61.038537
 20
14.198956
 30
0.0
  0
SPLINE
  5
104
100
AcDbEntity
  8
Ebene_1
 62
7
100
AcDbSpline
 70
8
 71
3
 72
8
 73
4
 74
0
 40
0
 40
0
 40
0
 40
0
 40
1
 40
1
 40
1
 40
1
 10
61.038537
 20
14.198956
 30
0.0
 10
60.615844
 20
15.255369
 30
0.0
 10
60.616945
 20
15.477747
 30
0.0
 10
61.050004
 20
16.514116
 30
0.0
  0
SPLINE
  5
105
100
AcDbEntity
  8
Ebene_1
 62
7
100
AcDbSpline
 70
8
 71
3
 72
8
 73
4
 74
0
 40
0
 40
0
 40
0
 40
0
 40
1
 40
1
 40
1
 40
1
 10
61.050004
 20
16.514116
 30
0.0
 10
61.726312
 20
18.132740
 30
0.0
 10
63.835388
 20
19.846872
 30
0.0
 10
66.697083
 20
21.103715
 30
0.0
  0
SPLINE
  5
106
100
AcDbEntity
  8
Ebene_1
 62
7
100
AcDbSpline
 70
8
 71
3
 72
8
 73
4
 74
0
 40
0
 40
0
 40
0
 40
0
 40
1
 40
1
 40
1
 40
1
 10
66.697083
 20
21.103715
 30
0.0
 10
68.050982
 20
21.698344
 30
0.0
 10
68.138521
 20
21.806545
 30
0.0
 10
68.143474
 20
22.891454
 30
0.0
  0
SPLINE
  5
107
100
AcDbEntity
  8
Ebene_1
 62
7
100
AcDbSpline
 70
8
 71
3
 72
8
 73
4
 74
0
 40
0
 40
0
 40
0
 40
0
 40
1
 40
1
 40
1
 40
1
 10
68.143474
 20
22.891454
 30
0.0
 10
68.152648
 20
25.016251
 30
0.0
 10
69.026152
 20
28.270815
 30
0.0
 10
70.255371
 20
30.764835
 30
0.0
  0
SPLINE
  5
108
100
AcDbEntity
  8
Ebene_1
 62
7
100
AcDbSpline
 70
8
 71
3
 72
8
 73
4
 74
0
 40
0
 40
0
 40
0
 40
0
 40
1
 40
1
 40
1
 40
1
 10
70.255371
 20
30.764835
 30
0.0
 10
72.716137
 20
35.757565
 30
0.0
 10
78.378215
 20
40.572341
 30
0.0
 10
84.769955
 20
43.107355
 30
0.0
  0
SPLINE
  5
109
100
AcDbEntity
  8
Ebene_1
 62
7
100
AcDbSpline
 70
8
 71
3
 72
8
 73
4
 74
0
 40
0
 40
0
 40
0
 40
0
 40
1
 40
1
 40
1
 40
1
 10
85.172524
 20
44.773074
 30
0.0
 10
82.302905
 20
48.396264
 30
0.0
 10
78.524360
 20
55.719196
 30
0.0
 10
76.791262
 20
61.016173
 30
0.0
  0
SPLINE
  5
10a
100
AcDbEntity
  8
Ebene_1
 62
7
100
AcDbSpline
 70
8
 71
3
 72
8
 73
4
 74
0
 40
0
 40
0
 40
0
 40
0
 40
1
 40
1
 40
1
 40
1
 10
76.791262
 20
61.016173
 30
0.0
 10
74.964628
 20
66.599072
 30
0.0
 10
74.197181
 20
71.166450
 30
0.0
 10
73.883401
 20
78.321916
 30
0.0
  0
SPLINE
  5
10b
100
AcDbEntity
  8
Ebene_1
 62
7
100
AcDbSpline
 70
8
 71
3
 72
8
 73
4
 74
0
 40
0
 40
0
 40
0
 40
0
 40
1
 40
1
 40
1
 40
1
 10
73.883401
 20
78.321916
 30
0.0
 10
73.730329
 20
81.812833
 30
0.0
 10
73.535804
 20
84.738304
 30
0.0
 10
73.451144
 20
84.822963
 30
0.0
  0
SPLINE
  5
10c
100
AcDbEntity
  8
Ebene_1
 62
7
100
AcDbSpline
 70
8
 71
3
 72
8
 73
4
 74
0
 40
0
 40
0
 40
0
 40
0
 40
1
 40
1
 40
1
 40
1
 10
73.451144
 20
84.822963
 30
0.0
 10
73.219248
 20
85.054869
 30
0.0
 10
69.795823
 20
84.042973
 30
0.0
 10
67.307008
 20
83.006877
 30
0.0
  0
LWPOLYLINE
  5
10d
100
AcDbEntity
  8
Ebene_1
 62
7
100
AcDbPolyline
 90
3
 70
0
 10
84.769955
 20
43.107355
 30
0.0
 10
86.080222
 20
43.627013
 30
0.0
 10
85.172524
 20
44.773074
 30
0.0
  0
SPLINE
  5
10e
100
AcDbEntity
  8
Ebene_1
 62
7
100
AcDbSpline
 70
8
 71
3
 72
8
 73
4
 74
0
 40
0
 40
0
 40
0
 40
0
 40
1
 40
1
 40
1
 40
1
 10
65.104248
 20
80.760689
 30
0.0
 10
65.104248
 20
79.592361
 30
0.0
 10
65.213757
 20
79.374875
 30
0.0
 10
66.009297
 20
78.963491
 30
0.0
  0
SPLINE
  5
10f
100
AcDbEntity
  8
Ebene_1
 62
7
100
AcDbSpline
 70
8
 71
3
 72
8
 73
4
 74
0
 40
0
 40
0
 40
0
 40
0
 40
1
 40
1
 40
1
 40
1
 10
66.009297
 20
78.963491
 30
0.0
 10
67.844394
 20
78.014530
 30
0.0
 10
67.834808
 20
78.100325
 30
0.0
 10
67.834808
 20
62.619212
 30
0.0
  0
LWPOLYLINE
  5
110
100
AcDbEntity
  8
Ebene_1
 62
7
100
AcDbPolyline
 90
3
 70
0
 10
67.307008
 20
83.006877
 30
0.0
 10
65.104248
 20
82.089864
 30
0.0
 10
65.104248
 20
80.760689
 30
0.0
  0
SPLINE
  5
111
100
AcDbEntity
  8
Ebene_1
 62
7
100
AcDbSpline
 70
8
 71
3
 72
8
 73
4
 74
0
 40
0
 40
0
 40
0
 40
0
 40
1
 40
1
 40
1
 40
1
 10
66.628293
 20
48.319080
 30
0.0
 10
65.223596
 20
48.081761
 30
0.0
 10
63.756358
 20
47.158215
 30
0.0
 10
62.856686
 20
45.945084
 30
0.0
  0
SPLINE
  5
112
100
AcDbEntity
  8
Ebene_1
 62
7
100
AcDbSpline
 70
8
 71
3
 72
8
 73
4
 74
0
 40
0
 40
0
 40
0
 40
0
 40
1
 40
1
 40
1
 40
1
 10
62.856686
 20
45.945084
 30
0.0
 10
62.259019
 20
45.139178
 30
0.0
 10
62.216706
 20
44.648245
 30
0.0
 10
62.131335
 20
37.528596
 30
0.0
  0
SPLINE
  5
113
100
AcDbEntity
  8
Ebene_1
 62
7
100
AcDbSpline
 70
8
 71
3
 72
8
 73
4
 74
0
 40
0
 40
0
 40
0
 40
0
 40
1
 40
1
 40
1
 40
1
 10
62.131335
 20
37.528596
 30
0.0
 10
62.022972
 20
28.495027
 30
0.0
 10
62.445012
 20
29.209531
 30
0.0
 10
57.215972
 20
29.206194
 30
0.0
  0
SPLINE
  5
114
100
AcDbEntity
  8
Ebene_1
 62
7
100
AcDbSpline
 70
8
 71
3
 72
8
 73
4
 74
0
 40
0
 40
0
 40
0
 40
0
 40
1
 40
1
 40
1
 40
1
 10
57.215972
 20
29.206194
 30
0.0
 10
51.958436
 20
29.202754
 30
0.0
 10
52.361635
 20
28.531847
 30
0.0
 10
52.361635
 20
37.284615
 30
0.0
  0
SPLINE
  5
115
100
AcDbEntity
  8
Ebene_1
 62
7
100
AcDbSpline
 70
8
 71
3
 72
8
 73
4
 74
0
 40
0
 40
0
 40
0
 40
0
 40
1
 40
1
 40
1
 40
1
 10
52.361635
 20
37.284615
 30
0.0
 10
52.361635
 20
43.392170
 30
0.0
 10
52.281138
 20
44.755071
 30
0.0
 10
51.869143
 20
45.623300
 30
0.0
  0
SPLINE
  5
116
100
AcDbEntity
  8
Ebene_1
 62
7
100
AcDbSpline
 70
8
 71
3
 72
8
 73
4
 74
0
 40
0
 40
0
 40
0
 40
0
 40
1
 40
1
 40
1
 40
1
 10
51.869143
 20
45.623300
 30
0.0
 10
51.251408
 20
46.925082
 30
0.0
 10
50.142408
 20
47.725300
 30
0.0
 10
48.320177
 20
48.184149
 30
0.0
  0
LWPOLYLINE
  5
117
100
AcDbEntity
  8
Ebene_1
 62
7
100
AcDbPolyline
 90
3
 70
0
 10
67.834808
 20
62.619212
 30
0.0
 10
67.834808
 20
48.522916
 30
0.0
 10
66.628293
 20
48.319080
 30
0.0
  0
SPLINE
  5
118
100
AcDbEntity
  8
Ebene_1
 62
7
100
AcDbSpline
 70
8
 71
3
 72
8
 73
4
 74
0
 40
0
 40
0
 40
0
 40
0
 40
1
 40
1
 40
1
 40
1
 10
45.580444
 20
74.652143
 30
0.0
 10
42.395014
 20
77.837566
 30
0.0
 10
41.320908
 20
82.452322
 30
0.0
 10
43.007887
 20
85.704730
 30
0.0
  0
LWPOLYLINE
  5
119
100
AcDbEntity
  8
Ebene_1
 62
7
100
AcDbPolyline
 90
5
 70
0
 10
48.320177
 20
48.184149
 30
0.0
 10
46.900539
 20
48.541619
 30
0.0
 10
46.900539
 20
60.936835
 30
0.0
 10
46.900539
 20
73.332051
 30
0.0
 10
45.580444
 20
74.652143
 30
0.0
  0
SPLINE
  5
11a
100
AcDbEntity
  8
Ebene_1
 62
7
100
AcDbSpline
 70
8
 71
3
 72
8
 73
4
 74
0
 40
0
 40
0
 40
0
 40
0
 40
1
 40
1
 40
1
 40
1
 10
43.159583
 20
87.675683
 30
0.0
 10
41.663895
 20
88.605751
 30
0.0
 10
40.531870
 20
88.868240
 30
0.0
 10
36.239034
 20
89.280380
 30
0.0
  0
SPLINE
  5
11b
100
AcDbEntity
  8
Ebene_1
 62
7
100
AcDbSpline
 70
8
 71
3
 72
8
 73
4
 74
0
 40
0
 40
0
 40
0
 40
0
 40
1
 40
1
 40
1
 40
1
 10
36.239034
 20
89.280380
 30
0.0
 10
19.228400
 20
90.913517
 30
0.0
 10
7.132407
 20
98.779365
 30
0.0
 10
2.408002
 20
111.280218
 30
0.0
  0
SPLINE
  5
11c
100
AcDbEntity
  8
Ebene_1
 62
7
100
AcDbSpline
 70
8
 71
3
 72
8
 73
4
 74
0
 40
0
 40
0
 40
0
 40
0
 40
1
 40
1
 40
1
 40
1
 10
2.408002
 20
111.280218
 30
0.0
 10
-0.968730
 20
120.215074
 30
0.0
 10
-0.781532
 20
131.287858
 30
0.0
 10
2.890496
 20
139.820552
 30
0.0
  0
SPLINE
  5
11d
100
AcDbEntity
  8
Ebene_1
 62
7
100
AcDbSpline
 70
8
 71
3
 72
8
 73
4
 74
0
 40
0
 40
0
 40
0
 40
0
 40
1
 40
1
 40
1
 40
1
 10
2.890496
 20
139.820552
 30
0.0
 10
7.166120
 20
149.755803
 30
0.0
 10
16.851033
 20
157.017836
 30
0.0
 10
29.579897
 20
159.833056
 30
0.0
  0
SPLINE
  5
11e
100
AcDbEntity
  8
Ebene_1
 62
7
100
AcDbSpline
 70
8
 71
3
 72
8
 73
4
 74
0
 40
0
 40
0
 40
0
 40
0
 40
1
 40
1
 40
1
 40
1
 10
29.579897
 20
159.833056
 30
0.0
 10
31.013170
 20
160.150048
 30
0.0
 10
33.366032
 20
160.412365
 30
0.0
 10
34.808479
 20
160.415977
 30
0.0
  0
SPLINE
  5
11f
100
AcDbEntity
  8
Ebene_1
 62
7
100
AcDbSpline
 70
8
 71
3
 72
8
 73
4
 74
0
 40
0
 40
0
 40
0
 40
0
 40
1
 40
1
 40
1
 40
1
 10
34.808479
 20
160.415977
 30
0.0
 10
37.299563
 20
160.421711
 30
0.0
 10
37.479972
 20
160.468152
 30
0.0
 10
38.405456
 20
161.332723
 30
0.0
  0
LWPOLYLINE
  5
120
100
AcDbEntity
  8
Ebene_1
 62
7
100
AcDbPolyline
 90
3
 70
0
 10
43.007887
 20
85.704730
 30
0.0
 10
43.817876
 20
87.266338
 30
0.0
 10
43.159583
 20
87.675683
 30
0.0
  0
SPLINE
  5
121
100
AcDbEntity
  8
Ebene_1
 62
7
100
AcDbSpline
 70
8
 71
3
 72
8
 73
4
 74
0
 40
0
 40
0
 40
0
 40
0
 40
1
 40
1
 40
1
 40
1
 10
62.373711
 20
153.292751
 30
0.0
 10
62.373711
 20
147.528230
 30
0.0
 10
62.265693
 20
144.342577
 30
0.0
 10
62.070308
 20
144.342577
 30
0.0
  0
SPLINE
  5
122
100
AcDbEntity
  8
Ebene_1
 62
7
100
AcDbSpline
 70
8
 71
3
 72
8
 73
4
 74
0
 40
0
 40
0
 40
0
 40
0
 40
1
 40
1
 40
1
 40
1
 10
62.070308
 20
144.342577
 30
0.0
 10
61.896940
 20
144.342577
 30
0.0
 10
61.766916
 20
143.432390
 30
0.0
 10
61.766916
 20
142.218809
 30
0.0
  0
LWPOLYLINE
  5
123
100
AcDbEntity
  8
Ebene_1
 62
7
100
AcDbPolyline
 90
5
 70
0
 10
38.405456
 20
161.332723
 30
0.0
 10
39.379811
 20
162.242910
 30
0.0
 10
50.876761
 20
162.242910
 30
0.0
 10
62.373711
 20
162.242910
 30
0.0
 10
62.373711
 20
153.292751
 30
0.0
  0
SPLINE
  5
124
100
AcDbEntity
  8
Ebene_1
 62
7
100
AcDbSpline
 70
8
 71
3
 72
8
 73
4
 74
0
 40
0
 40
0
 40
0
 40
0
 40
1
 40
1
 40
1
 40
1
 10
34.076901
 20
143.186879
 30
0.0
 10
25.664552
 20
139.073075
 30
0.0
 10
20.966773
 20
131.514964
 30
0.0
 10
21.507175
 20
122.963851
 30
0.0
  0
SPLINE
  5
125
100
AcDbEntity
  8
Ebene_1
 62
7
100
AcDbSpline
 70
8
 71
3
 72
8
 73
4
 74
0
 40
0
 40
0
 40
0
 40
0
 40
1
 40
1
 40
1
 40
1
 10
21.507175
 20
122.963851
 30
0.0
 10
21.669042
 20
120.402452
 30
0.0
 10
22.440834
 20
117.352941
 30
0.0
 10
23.394354
 20
115.507265
 30
0.0
  0
SPLINE
  5
126
100
AcDbEntity
  8
Ebene_1
 62
7
100
AcDbSpline
 70
8
 71
3
 72
8
 73
4
 74
0
 40
0
 40
0
 40
0
 40
0
 40
1
 40
1
 40
1
 40
1
 10
23.394354
 20
115.507265
 30
0.0
 10
25.014790
 20
112.370632
 30
0.0
 10
28.400352
 20
109.185530
 30
0.0
 10
32.382675
 20
107.051118
 30
0.0
  0
SPLINE
  5
127
100
AcDbEntity
  8
Ebene_1
 62
7
100
AcDbSpline
 70
8
 71
3
 72
8
 73
4
 74
0
 40
0
 40
0
 40
0
 40
0
 40
1
 40
1
 40
1
 40
1
 10
32.382675
 20
107.051118
 30
0.0
 10
36.664663
 20
104.756101
 30
0.0
 10
37.503136
 20
104.597759
 30
0.0
 10
45.373982
 20
104.597759
 30
0.0
  0
LWPOLYLINE
  5
128
100
AcDbEntity
  8
Ebene_1
 62
7
100
AcDbPolyline
 90
9
 70
0
 10
61.766916
 20
142.218809
 30
0.0
 10
61.766916
 20
140.095039
 30
0.0
 10
57.064287
 20
140.095039
 30
0.0
 10
52.361658
 20
140.095039
 30
0.0
 10
52.361658
 20
142.204548
 30
0.0
 10
52.361658
 20
144.314055
 30
0.0
 10
44.245821
 20
144.252467
 30
0.0
 10
36.129995
 20
144.190878
 30
0.0
 10
34.076901
 20
143.186879
 30
0.0
  0
SPLINE
  5
129
100
AcDbEntity
  8
Ebene_1
 62
7
100
AcDbSpline
 70
8
 71
3
 72
8
 73
4
 74
0
 40
0
 40
0
 40
0
 40
0
 40
1
 40
1
 40
1
 40
1
 10
63.010205
 20
104.597760
 30
0.0
 10
64.147632
 20
104.597760
 30
0.0
 10
64.528666
 20
104.840095
 30
0.0
 10
67.485296
 20
107.443898
 30
0.0
  0
SPLINE
  5
12a
100
AcDbEntity
  8
Ebene_1
 62
7
100
AcDbSpline
 70
8
 71
3
 72
8
 73
4
 74
0
 40
0
 40
0
 40
0
 40
0
 40
1
 40
1
 40
1
 40
1
 10
67.485296
 20
107.443898
 30
0.0
 10
71.450832
 20
110.936227
 30
0.0
 10
76.165054
 20
115.778630
 30
0.0
 10
77.510203
 20
117.741398
 30
0.0
  0
SPLINE
  5
12b
100
AcDbEntity
  8
Ebene_1
 62
7
100
AcDbSpline
 70
8
 71
3
 72
8
 73
4
 74
0
 40
0
 40
0
 40
0
 40
0
 40
1
 40
1
 40
1
 40
1
 10
77.510203
 20
117.741398
 30
0.0
 10
79.804321
 20
121.088822
 30
0.0
 10
82.383311
 20
127.678215
 30
0.0
 10
83.609973
 20
133.326455
 30
0.0
  0
SPLINE
  5
12c
100
AcDbEntity
  8
Ebene_1
 62
7
100
AcDbSpline
 70
8
 71
3
 72
8
 73
4
 74
0
 40
0
 40
0
 40
0
 40
0
 40
1
 40
1
 40
1
 40
1
 10
83.609973
 20
133.326455
 30
0.0
 10
84.611115
 20
137.936216
 30
0.0
 10
84.830730
 20
139.935748
 30
0.0
 10
85.120522
 20
147.079290
 30
0.0
  0
SPLINE
  5
12d
100
AcDbEntity
  8
Ebene_1
 62
7
100
AcDbSpline
 70
8
 71
3
 72
8
 73
4
 74
0
 40
0
 40
0
 40
0
 40
0
 40
1
 40
1
 40
1
 40
1
 10
85.120522
 20
147.079290
 30
0.0
 10
85.500191
 20
156.438528
 30
0.0
 10
86.392168
 20
160.460217
 30
0.0
 10
89.526662
 20
166.945550
 30
0.0
  0
SPLINE
  5
12e
100
AcDbEntity
  8
Ebene_1
 62
7
100
AcDbSpline
 70
8
 71
3
 72
8
 73
4
 74
0
 40
0
 40
0
 40
0
 40
0
 40
1
 40
1
 40
1
 40
1
 10
89.526662
 20
166.945550
 30
0.0
 10
92.395031
 20
172.880242
 30
0.0
 10
95.959511
 20
177.632133
 30
0.0
 10
101.703761
 20
183.179082
 30
0.0
  0
SPLINE
  5
12f
100
AcDbEntity
  8
Ebene_1
 62
7
100
AcDbSpline
 70
8
 71
3
 72
8
 73
4
 74
0
 40
0
 40
0
 40
0
 40
0
 40
1
 40
1
 40
1
 40
1
 10
101.703761
 20
183.179082
 30
0.0
 10
110.260879
 20
191.442281
 30
0.0
 10
120.282748
 20
196.903940
 30
0.0
 10
131.320642
 20
199.319503
 30
0.0
  0
SPLINE
  5
130
100
AcDbEntity
  8
Ebene_1
 62
7
100
AcDbSpline
 70
8
 71
3
 72
8
 73
4
 74
0
 40
0
 40
0
 40
0
 40
0
 40
1
 40
1
 40
1
 40
1
 10
131.320642
 20
199.319503
 30
0.0
 10
134.005403
 20
199.907045
 30
0.0
 10
135.321165
 20
199.999996
 30
0.0
 10
140.953153
 20
199.999996
 30
0.0
  0
SPLINE
  5
131
100
AcDbEntity
  8
Ebene_1
 62
7
100
AcDbSpline
 70
8
 71
3
 72
8
 73
4
 74
0
 40
0
 40
0
 40
0
 40
0
 40
1
 40
1
 40
1
 40
1
 10
140.953153
 20
199.999996
 30
0.0
 10
146.603247
 20
199.999996
 30
0.0
 10
147.896647
 20
199.908031
 30
0.0
 10
150.618297
 20
199.312852
 30
0.0
  0
SPLINE
  5
132
100
AcDbEntity
  8
Ebene_1
 62
7
100
AcDbSpline
 70
8
 71
3
 72
8
 73
4
 74
0
 40
0
 40
0
 40
0
 40
0
 40
1
 40
1
 40
1
 40
1
 10
150.618297
 20
199.312852
 30
0.0
 10
159.695704
 20
197.327757
 30
0.0
 10
168.579137
 20
193.008651
 30
0.0
 10
176.161453
 20
186.893859
 30
0.0
  0
SPLINE
  5
133
100
AcDbEntity
  8
Ebene_1
 62
7
100
AcDbSpline
 70
8
 71
3
 72
8
 73
4
 74
0
 40
0
 40
0
 40
0
 40
0
 40
1
 40
1
 40
1
 40
1
 10
176.161453
 20
186.893859
 30
0.0
 10
179.483408
 20
184.214855
 30
0.0
 10
185.684419
 20
177.682828
 30
0.0
 10
188.056638
 20
174.363706
 30
0.0
  0
SPLINE
  5
134
100
AcDbEntity
  8
Ebene_1
 62
7
100
AcDbSpline
 70
8
 71
3
 72
8
 73
4
 74
0
 40
0
 40
0
 40
0
 40
0
 40
1
 40
1
 40
1
 40
1
 10
188.056638
 20
174.363706
 30
0.0
 10
190.279087
 20
171.254130
 30
0.0
 10
193.638515
 20
164.791971
 30
0.0
 10
194.673210
 20
161.636126
 30
0.0
  0
SPLINE
  5
135
100
AcDbEntity
  8
Ebene_1
 62
7
100
AcDbSpline
 70
8
 71
3
 72
8
 73
4
 74
0
 40
0
 40
0
 40
0
 40
0
 40
1
 40
1
 40
1
 40
1
 10
194.673210
 20
161.636126
 30
0.0
 10
196.073940
 20
157.363862
 30
0.0
 10
196.508501
 20
154.407874
 30
0.0
 10
196.791838
 20
147.224835
 30
0.0
  0
SPLINE
  5
136
100
AcDbEntity
  8
Ebene_1
 62
7
100
AcDbSpline
 70
8
 71
3
 72
8
 73
4
 74
0
 40
0
 40
0
 40
0
 40
0
 40
1
 40
1
 40
1
 40
1
 10
196.791838
 20
147.224835
 30
0.0
 10
197.058615
 20
140.461311
 30
0.0
 10
197.458467
 20
136.970071
 30
0.0
 10
198.461742
 20
132.643996
 30
0.0
  0
SPLINE
  5
137
100
AcDbEntity
  8
Ebene_1
 62
7
100
AcDbSpline
 70
8
 71
3
 72
8
 73
4
 74
0
 40
0
 40
0
 40
0
 40
0
 40
1
 40
1
 40
1
 40
1
 10
198.461742
 20
132.643996
 30
0.0
 10
199.839205
 20
126.704538
 30
0.0
 10
202.592309
 20
120.113904
 30
0.0
 10
205.044659
 20
116.885280
 30
0.0
  0
SPLINE
  5
138
100
AcDbEntity
  8
Ebene_1
 62
7
100
AcDbSpline
 70
8
 71
3
 72
8
 73
4
 74
0
 40
0
 40
0
 40
0
 40
0
 40
1
 40
1
 40
1
 40
1
 10
205.044659
 20
116.885280
 30
0.0
 10
206.666012
 20
114.750686
 30
0.0
 10
211.955518
 20
109.553575
 30
0.0
 10
216.574496
 20
105.556824
 30
0.0
  0
LWPOLYLINE
  5
139
100
AcDbEntity
  8
Ebene_1
 62
7
100
AcDbPolyline
 90
9
 70
0
 10
45.373982
 20
104.597759
 30
0.0
 10
52.361658
 20
104.597759
 30
0.0
 10
52.361658
 20
118.250560
 30
0.0
 10
52.361658
 20
131.903360
 30
0.0
 10
57.064287
 20
131.903360
 30
0.0
 10
61.766916
 20
131.903360
 30
0.0
 10
61.766916
 20
118.250560
 30
0.0
 10
61.766916
 20
104.597760
 30
0.0
 10
63.010205
 20
104.597760
 30
0.0
  0
SPLINE
  5
13a
100
AcDbEntity
  8
Ebene_1
 62
7
100
AcDbSpline
 70
8
 71
3
 72
8
 73
4
 74
0
 40
0
 40
0
 40
0
 40
0
 40
1
 40
1
 40
1
 40
1
 10
219.835997
 20
104.542894
 30
0.0
 10
219.835997
 20
106.842933
 30
0.0
 10
220.581736
 20
110.791799
 30
0.0
 10
221.487153
 20
113.286199
 30
0.0
  0
LWPOLYLINE
  5
13b
100
AcDbEntity
  8
Ebene_1
 62
7
100
AcDbPolyline
 90
3
 70
0
 10
216.574496
 20
105.556824
 30
0.0
 10
219.835997
 20
102.734684
 30
0.0
 10
219.835997
 20
104.542894
 30
0.0
  0
SPLINE
  5
13c
100
AcDbEntity
  8
Ebene_1
 62
7
100
AcDbSpline
 70
8
 71
3
 72
8
 73
4
 74
0
 40
0
 40
0
 40
0
 40
0
 40
1
 40
1
 40
1
 40
1
 10
221.448234
 20
117.059541
 30
0.0
 10
220.242178
 20
120.045448
 30
0.0
 10
219.846971
 20
122.587541
 30
0.0
 10
219.841272
 20
127.396130
 30
0.0
  0
SPLINE
  5
13d
100
AcDbEntity
  8
Ebene_1
 62
7
100
AcDbSpline
 70
8
 71
3
 72
8
 73
4
 74
0
 40
0
 40
0
 40
0
 40
0
 40
1
 40
1
 40
1
 40
1
 10
219.841272
 20
127.396130
 30
0.0
 10
219.835538
 20
132.693338
 30
0.0
 10
220.250262
 20
137.175254
 30
0.0
 10
221.076098
 20
140.723166
 30
0.0
  0
LWPOLYLINE
  5
13e
100
AcDbEntity
  8
Ebene_1
 62
7
100
AcDbPolyline
 90
3
 70
0
 10
221.487153
 20
113.286199
 30
0.0
 10
222.190109
 20
115.222833
 30
0.0
 10
221.448234
 20
117.059541
 30
0.0
  0
SPLINE
  5
13f
100
AcDbEntity
  8
Ebene_1
 62
7
100
AcDbSpline
 70
8
 71
3
 72
8
 73
4
 74
0
 40
0
 40
0
 40
0
 40
0
 40
1
 40
1
 40
1
 40
1
 10
220.710946
 20
146.184286
 30
0.0
 10
219.930805
 20
148.484323
 30
0.0
 10
219.737324
 20
149.550797
 30
0.0
 10
219.724103
 20
151.624073
 30
0.0
  0
SPLINE
  5
140
100
AcDbEntity
  8
Ebene_1
 62
7
100
AcDbSpline
 70
8
 71
3
 72
8
 73
4
 74
0
 40
0
 40
0
 40
0
 40
0
 40
1
 40
1
 40
1
 40
1
 10
219.724103
 20
151.624073
 30
0.0
 10
219.704150
 20
154.751721
 30
0.0
 10
220.326735
 20
156.338399
 30
0.0
 10
222.475085
 20
158.635165
 30
0.0
  0
SPLINE
  5
141
100
AcDbEntity
  8
Ebene_1
 62
7
100
AcDbSpline
 70
8
 71
3
 72
8
 73
4
 74
0
 40
0
 40
0
 40
0
 40
0
 40
1
 40
1
 40
1
 40
1
 10
222.475085
 20
158.635165
 30
0.0
 10
224.429575
 20
160.724667
 30
0.0
 10
226.280909
 20
161.608915
 30
0.0
 10
229.570539
 20
162.024144
 30
0.0
  0
SPLINE
  5
142
100
AcDbEntity
  8
Ebene_1
 62
7
100
AcDbSpline
 70
8
 71
3
 72
8
 73
4
 74
0
 40
0
 40
0
 40
0
 40
0
 40
1
 40
1
 40
1
 40
1
 10
229.570539
 20
162.024144
 30
0.0
 10
233.279078
 20
162.492246
 30
0.0
 10
234.903493
 20
161.975295
 30
0.0
 10
237.574207
 20
159.476951
 30
0.0
  0
SPLINE
  5
143
100
AcDbEntity
  8
Ebene_1
 62
7
100
AcDbSpline
 70
8
 71
3
 72
8
 73
4
 74
0
 40
0
 40
0
 40
0
 40
0
 40
1
 40
1
 40
1
 40
1
 10
237.574207
 20
159.476951
 30
0.0
 10
240.480680
 20
156.758088
 30
0.0
 10
240.734076
 20
156.053847
 30
0.0
 10
240.836579
 20
150.410300
 30
0.0
  0
SPLINE
  5
144
100
AcDbEntity
  8
Ebene_1
 62
7
100
AcDbSpline
 70
8
 71
3
 72
8
 73
4
 74
0
 40
0
 40
0
 40
0
 40
0
 40
1
 40
1
 40
1
 40
1
 10
240.836579
 20
150.410300
 30
0.0
 10
240.905381
 20
146.623141
 30
0.0
 10
240.812957
 20
145.282521
 30
0.0
 10
240.361895
 20
143.522618
 30
0.0
  0
SPLINE
  5
145
100
AcDbEntity
  8
Ebene_1
 62
7
100
AcDbSpline
 70
8
 71
3
 72
8
 73
4
 74
0
 40
0
 40
0
 40
0
 40
0
 40
1
 40
1
 40
1
 40
1
 10
240.361895
 20
143.522618
 30
0.0
 10
239.843154
 20
141.498778
 30
0.0
 10
239.836802
 20
141.229872
 30
0.0
 10
240.275893
 20
139.881870
 30
0.0
  0
SPLINE
  5
146
100
AcDbEntity
  8
Ebene_1
 62
7
100
AcDbSpline
 70
8
 71
3
 72
8
 73
4
 74
0
 40
0
 40
0
 40
0
 40
0
 40
1
 40
1
 40
1
 40
1
 10
240.275893
 20
139.881870
 30
0.0
 10
241.420371
 20
136.368065
 30
0.0
 10
241.623198
 20
132.034072
 30
0.0
 10
241.059209
 20
123.144463
 30
0.0
  0
SPLINE
  5
147
100
AcDbEntity
  8
Ebene_1
 62
7
100
AcDbSpline
 70
8
 71
3
 72
8
 73
4
 74
0
 40
0
 40
0
 40
0
 40
0
 40
1
 40
1
 40
1
 40
1
 10
241.059209
 20
123.144463
 30
0.0
 10
240.885910
 20
120.412915
 30
0.0
 10
240.547739
 20
117.067979
 30
0.0
 10
240.307713
 20
115.711273
 30
0.0
  0
SPLINE
  5
148
100
AcDbEntity
  8
Ebene_1
 62
7
100
AcDbSpline
 70
8
 71
3
 72
8
 73
4
 74
0
 40
0
 40
0
 40
0
 40
0
 40
1
 40
1
 40
1
 40
1
 10
240.307713
 20
115.711273
 30
0.0
 10
239.695449
 20
112.250370
 30
0.0
 10
239.750616
 20
110.967768
 30
0.0
 10
240.618627
 20
108.483314
 30
0.0
  0
SPLINE
  5
149
100
AcDbEntity
  8
Ebene_1
 62
7
100
AcDbSpline
 70
8
 71
3
 72
8
 73
4
 74
0
 40
0
 40
0
 40
0
 40
0
 40
1
 40
1
 40
1
 40
1
 10
240.618627
 20
108.483314
 30
0.0
 10
241.353565
 20
106.379755
 30
0.0
 10
241.377118
 20
106.064141
 30
0.0
 10
241.377118
 20
98.317697
 30
0.0
  0
LWPOLYLINE
  5
14a
100
AcDbEntity
  8
Ebene_1
 62
7
100
AcDbPolyline
 90
3
 70
0
 10
221.076098
 20
140.723166
 30
0.0
 10
221.681333
 20
143.323365
 30
0.0
 10
220.710946
 20
146.184286
 30
0.0
  0
SPLINE
  5
14b
100
AcDbEntity
  8
Ebene_1
 62
7
100
AcDbSpline
 70
8
 71
3
 72
8
 73
4
 74
0
 40
0
 40
0
 40
0
 40
0
 40
1
 40
1
 40
1
 40
1
 10
241.377118
 20
90.323042
 30
0.0
 10
244.186137
 20
87.682832
 30
0.0
 10
246.053944
 20
85.258940
 30
0.0
 10
246.079747
 20
82.140109
 30
0.0
  0
SPLINE
  5
14c
100
AcDbEntity
  8
Ebene_1
 62
7
100
AcDbSpline
 70
8
 71
3
 72
8
 73
4
 74
0
 40
0
 40
0
 40
0
 40
0
 40
1
 40
1
 40
1
 40
1
 10
246.079747
 20
82.140109
 30
0.0
 10
246.079747
 20
80.173605
 30
0.0
 10
245.941938
 20
79.578337
 30
0.0
 10
245.082561
 20
77.832694
 30
0.0
  0
SPLINE
  5
14d
100
AcDbEntity
  8
Ebene_1
 62
7
100
AcDbSpline
 70
8
 71
3
 72
8
 73
4
 74
0
 40
0
 40
0
 40
0
 40
0
 40
1
 40
1
 40
1
 40
1
 10
245.082561
 20
77.832694
 30
0.0
 10
244.475640
 20
76.599839
 30
0.0
 10
243.555431
 20
75.340648
 30
0.0
 10
242.731247
 20
74.615172
 30
0.0
  0
LWPOLYLINE
  5
14e
100
AcDbEntity
  8
Ebene_1
 62
7
100
AcDbPolyline
 90
2
 70
0
 10
241.377118
 20
98.317697
 30
0.0
 10
241.377118
 20
90.323042
 30
0.0
  0
SPLINE
  5
14f
100
AcDbEntity
  8
Ebene_1
 62
7
100
AcDbSpline
 70
8
 71
3
 72
8
 73
4
 74
0
 40
0
 40
0
 40
0
 40
0
 40
1
 40
1
 40
1
 40
1
 10
240.131627
 20
31.491195
 30
0.0
 10
238.376662
 20
30.219904
 30
0.0
 10
236.068658
 20
29.428331
 30
0.0
 10
232.951170
 20
29.028537
 30
0.0
  0
SPLINE
  5
150
100
AcDbEntity
  8
Ebene_1
 62
7
100
AcDbSpline
 70
8
 71
3
 72
8
 73
4
 74
0
 40
0
 40
0
 40
0
 40
0
 40
1
 40
1
 40
1
 40
1
 10
232.951170
 20
29.028537
 30
0.0
 10
228.137461
 20
28.411204
 30
0.0
 10
223.781729
 20
29.566370
 30
0.0
 10
221.125463
 20
32.164796
 30
0.0
  0
LWPOLYLINE
  5
151
100
AcDbEntity
  8
Ebene_1
 62
7
100
AcDbPolyline
 90
5
 70
0
 10
242.731247
 20
74.615172
 30
0.0
 10
241.377118
 20
73.423219
 30
0.0
 10
241.377118
 20
52.908324
 30
0.0
 10
241.377118
 20
32.393424
 30
0.0
 10
240.131627
 20
31.491195
 30
0.0
  0
SPLINE
  5
152
100
AcDbEntity
  8
Ebene_1
 62
7
100
AcDbSpline
 70
8
 71
3
 72
8
 73
4
 74
0
 40
0
 40
0
 40
0
 40
0
 40
1
 40
1
 40
1
 40
1
 10
217.203147
 20
81.817385
 30
0.0
 10
214.618664
 20
83.080781
 30
0.0
 10
209.707532
 20
84.877049
 30
0.0
 10
208.837778
 20
84.877049
 30
0.0
  0
SPLINE
  5
153
100
AcDbEntity
  8
Ebene_1
 62
7
100
AcDbSpline
 70
8
 71
3
 72
8
 73
4
 74
0
 40
0
 40
0
 40
0
 40
0
 40
1
 40
1
 40
1
 40
1
 10
208.837778
 20
84.877049
 30
0.0
 10
208.476524
 20
84.877049
 30
0.0
 10
208.357497
 20
83.924855
 30
0.0
 10
208.183578
 20
79.643477
 30
0.0
  0
SPLINE
  5
154
100
AcDbEntity
  8
Ebene_1
 62
7
100
AcDbSpline
 70
8
 71
3
 72
8
 73
4
 74
0
 40
0
 40
0
 40
0
 40
0
 40
1
 40
1
 40
1
 40
1
 10
208.183578
 20
79.643477
 30
0.0
 10
207.835810
 20
71.082777
 30
0.0
 10
206.814944
 20
65.430645
 30
0.0
 10
204.481885
 20
59.148758
 30
0.0
  0
SPLINE
  5
155
100
AcDbEntity
  8
Ebene_1
 62
7
100
AcDbSpline
 70
8
 71
3
 72
8
 73
4
 74
0
 40
0
 40
0
 40
0
 40
0
 40
1
 40
1
 40
1
 40
1
 10
204.481885
 20
59.148758
 30
0.0
 10
202.990016
 20
55.131829
 30
0.0
 10
199.869994
 20
49.143368
 30
0.0
 10
197.686842
 20
46.106596
 30
0.0
  0
SPLINE
  5
156
100
AcDbEntity
  8
Ebene_1
 62
7
100
AcDbSpline
 70
8
 71
3
 72
8
 73
4
 74
0
 40
0
 40
0
 40
0
 40
0
 40
1
 40
1
 40
1
 40
1
 10
197.686842
 20
46.106596
 30
0.0
 10
196.154621
 20
43.975252
 30
0.0
 10
195.959110
 20
43.563406
 30
0.0
 10
196.404347
 20
43.405036
 30
0.0
  0
SPLINE
  5
157
100
AcDbEntity
  8
Ebene_1
 62
7
100
AcDbSpline
 70
8
 71
3
 72
8
 73
4
 74
0
 40
0
 40
0
 40
0
 40
0
 40
1
 40
1
 40
1
 40
1
 10
196.404347
 20
43.405036
 30
0.0
 10
202.745610
 20
41.149390
 30
0.0
 10
209.063641
 20
35.955977
 30
0.0
 10
211.578119
 20
30.932229
 30
0.0
  0
SPLINE
  5
158
100
AcDbEntity
  8
Ebene_1
 62
7
100
AcDbSpline
 70
8
 71
3
 72
8
 73
4
 74
0
 40
0
 40
0
 40
0
 40
0
 40
1
 40
1
 40
1
 40
1
 10
211.578119
 20
30.932229
 30
0.0
 10
212.963517
 20
28.164264
 30
0.0
 10
213.882797
 20
24.568124
 30
0.0
 10
213.721939
 20
22.545691
 30
0.0
  0
SPLINE
  5
159
100
AcDbEntity
  8
Ebene_1
 62
7
100
AcDbSpline
 70
8
 71
3
 72
8
 73
4
 74
0
 40
0
 40
0
 40
0
 40
0
 40
1
 40
1
 40
1
 40
1
 10
213.721939
 20
22.545691
 30
0.0
 10
213.614838
 20
21.199246
 30
0.0
 10
213.616673
 20
21.196540
 30
0.0
 10
215.082535
 20
20.509970
 30
0.0
  0
SPLINE
  5
15a
100
AcDbEntity
  8
Ebene_1
 62
7
100
AcDbSpline
 70
8
 71
3
 72
8
 73
4
 74
0
 40
0
 40
0
 40
0
 40
0
 40
1
 40
1
 40
1
 40
1
 10
215.082535
 20
20.509970
 30
0.0
 10
215.889829
 20
20.131848
 30
0.0
 10
217.289630
 20
19.112152
 30
0.0
 10
218.193189
 20
18.243969
 30
0.0
  0
SPLINE
  5
15b
100
AcDbEntity
  8
Ebene_1
 62
7
100
AcDbSpline
 70
8
 71
3
 72
8
 73
4
 74
0
 40
0
 40
0
 40
0
 40
0
 40
1
 40
1
 40
1
 40
1
 10
218.193189
 20
18.243969
 30
0.0
 10
219.593357
 20
16.898647
 30
0.0
 10
219.836031
 20
16.501789
 30
0.0
 10
219.836031
 20
15.557431
 30
0.0
  0
SPLINE
  5
15c
100
AcDbEntity
  8
Ebene_1
 62
7
100
AcDbSpline
 70
8
 71
3
 72
8
 73
4
 74
0
 40
0
 40
0
 40
0
 40
0
 40
1
 40
1
 40
1
 40
1
 10
219.836031
 20
15.557431
 30
0.0
 10
219.836031
 20
14.948010
 30
0.0
 10
219.678694
 20
14.151174
 30
0.0
 10
219.486382
 20
13.786698
 30
0.0
  0
SPLINE
  5
15d
100
AcDbEntity
  8
Ebene_1
 62
7
100
AcDbSpline
 70
8
 71
3
 72
8
 73
4
 74
0
 40
0
 40
0
 40
0
 40
0
 40
1
 40
1
 40
1
 40
1
 10
219.486382
 20
13.786698
 30
0.0
 10
218.535041
 20
11.983639
 30
0.0
 10
215.169695
 20
9.773414
 30
0.0
 10
211.189264
 20
8.337492
 30
0.0
  0
SPLINE
  5
15e
100
AcDbEntity
  8
Ebene_1
 62
7
100
AcDbSpline
 70
8
 71
3
 72
8
 73
4
 74
0
 40
0
 40
0
 40
0
 40
0
 40
1
 40
1
 40
1
 40
1
 10
211.189264
 20
8.337492
 30
0.0
 10
204.689528
 20
5.992737
 30
0.0
 10
194.974962
 20
3.773819
 30
0.0
 10
187.069313
 20
2.828211
 30
0.0
  0
SPLINE
  5
15f
100
AcDbEntity
  8
Ebene_1
 62
7
100
AcDbSpline
 70
8
 71
3
 72
8
 73
4
 74
0
 40
0
 40
0
 40
0
 40
0
 40
1
 40
1
 40
1
 40
1
 10
187.069313
 20
2.828211
 30
0.0
 10
184.816603
 20
2.558762
 30
0.0
 10
181.949518
 20
2.211348
 30
0.0
 10
180.698007
 20
2.056178
 30
0.0
  0
SPLINE
  5
160
100
AcDbEntity
  8
Ebene_1
 62
7
100
AcDbSpline
 70
8
 71
3
 72
8
 73
4
 74
0
 40
0
 40
0
 40
0
 40
0
 40
1
 40
1
 40
1
 40
1
 10
180.698007
 20
2.056178
 30
0.0
 10
179.446507
 20
1.901008
 30
0.0
 10
175.691986
 20
1.633496
 30
0.0
 10
172.354631
 20
1.461710
 30
0.0
  0
SPLINE
  5
161
100
AcDbEntity
  8
Ebene_1
 62
7
100
AcDbSpline
 70
8
 71
3
 72
8
 73
4
 74
0
 40
0
 40
0
 40
0
 40
0
 40
1
 40
1
 40
1
 40
1
 10
172.354631
 20
1.461710
 30
0.0
 10
162.594988
 20
0.959333
 30
0.0
 10
155.542008
 20
0.512433
 30
0.0
 10
152.937321
 20
0.231367
 30
0.0
  0
SPLINE
  5
162
100
AcDbEntity
  8
Ebene_1
 62
7
100
AcDbSpline
 70
8
 71
3
 72
8
 73
4
 74
0
 40
0
 40
0
 40
0
 40
0
 40
1
 40
1
 40
1
 40
1
 10
152.937321
 20
0.231367
 30
0.0
 10
150.018474
 20
-0.083583
 30
0.0
 10
132.024803
 20
-0.074536
 30
0.0
 10
128.817368
 20
0.243522
 30
0.0
  0
LWPOLYLINE
  5
163
100
AcDbEntity
  8
Ebene_1
 62
7
100
AcDbPolyline
 90
5
 70
0
 10
221.125463
 20
32.164796
 30
0.0
 10
219.836031
 20
33.426146
 30
0.0
 10
219.836031
 20
56.978233
 30
0.0
 10
219.836031
 20
80.530323
 30
0.0
 10
217.203147
 20
81.817385
 30
0.0
  0
LWPOLYLINE
  5
164
100
AcDbEntity
  8
Ebene_1
 62
7
100
AcDbPolyline
 90
1
 70
1
 10
128.817368
 20
0.243522
 30
0.0
  0
SPLINE
  5
165
100
AcDbEntity
  8
Ebene_1
 62
7
100
AcDbSpline
 70
8
 71
3
 72
8
 73
4
 74
0
 40
0
 40
0
 40
0
 40
0
 40
1
 40
1
 40
1
 40
1
 10
146.031002
 20
21.336631
 30
0.0
 10
145.682431
 20
23.359809
 30
0.0
 10
146.106340
 20
26.689699
 30
0.0
 10
147.025115
 20
29.145293
 30
0.0
  0
SPLINE
  5
166
100
AcDbEntity
  8
Ebene_1
 62
7
100
AcDbSpline
 70
8
 71
3
 72
8
 73
4
 74
0
 40
0
 40
0
 40
0
 40
0
 40
1
 40
1
 40
1
 40
1
 10
147.025115
 20
29.145293
 30
0.0
 10
149.343222
 20
35.340984
 30
0.0
 10
155.861522
 20
40.867281
 30
0.0
 10
164.405878
 20
43.880913
 30
0.0
  0
SPLINE
  5
167
100
AcDbEntity
  8
Ebene_1
 62
7
100
AcDbSpline
 70
8
 71
3
 72
8
 73
4
 74
0
 40
0
 40
0
 40
0
 40
0
 40
1
 40
1
 40
1
 40
1
 10
164.405878
 20
43.880913
 30
0.0
 10
168.675780
 20
45.386921
 30
0.0
 10
172.435095
 20
46.057414
 30
0.0
 10
177.708088
 20
46.253418
 30
0.0
  0
LWPOLYLINE
  5
168
100
AcDbEntity
  8
Ebene_1
 62
7
100
AcDbPolyline
 90
3
 70
0
 10
144.895686
 20
19.647004
 30
0.0
 10
146.322101
 20
19.647004
 30
0.0
 10
146.031002
 20
21.336631
 30
0.0
  0
SPLINE
  5
169
100
AcDbEntity
  8
Ebene_1
 62
7
100
AcDbSpline
 70
8
 71
3
 72
8
 73
4
 74
0
 40
0
 40
0
 40
0
 40
0
 40
1
 40
1
 40
1
 40
1
 10
183.081956
 20
48.587452
 30
0.0
 10
185.348014
 20
56.383908
 30
0.0
 10
186.960882
 20
65.052951
 30
0.0
 10
187.660410
 20
73.196320
 30
0.0
  0
SPLINE
  5
16a
100
AcDbEntity
  8
Ebene_1
 62
7
100
AcDbSpline
 70
8
 71
3
 72
8
 73
4
 74
0
 40
0
 40
0
 40
0
 40
0
 40
1
 40
1
 40
1
 40
1
 10
187.660410
 20
73.196320
 30
0.0
 10
188.125577
 20
78.611507
 30
0.0
 10
188.048886
 20
90.094134
 30
0.0
 10
187.509333
 20
95.818288
 30
0.0
  0
LWPOLYLINE
  5
16b
100
AcDbEntity
  8
Ebene_1
 62
7
100
AcDbPolyline
 90
3
 70
0
 10
177.708088
 20
46.253418
 30
0.0
 10
182.454842
 20
46.429860
 30
0.0
 10
183.081956
 20
48.587452
 30
0.0
  0
SPLINE
  5
16c
100
AcDbEntity
  8
Ebene_1
 62
7
100
AcDbSpline
 70
8
 71
3
 72
8
 73
4
 74
0
 40
0
 40
0
 40
0
 40
0
 40
1
 40
1
 40
1
 40
1
 10
185.412710
 20
103.535876
 30
0.0
 10
180.435919
 20
111.890661
 30
0.0
 10
172.577135
 20
119.751558
 30
0.0
 10
164.823171
 20
124.130948
 30
0.0
  0
SPLINE
  5
16d
100
AcDbEntity
  8
Ebene_1
 62
7
100
AcDbSpline
 70
8
 71
3
 72
8
 73
4
 74
0
 40
0
 40
0
 40
0
 40
0
 40
1
 40
1
 40
1
 40
1
 10
164.823171
 20
124.130948
 30
0.0
 10
162.843465
 20
125.249073
 30
0.0
 10
162.052981
 20
125.532023
 30
0.0
 10
160.908939
 20
125.532038
 30
0.0
  0
SPLINE
  5
16e
100
AcDbEntity
  8
Ebene_1
 62
7
100
AcDbSpline
 70
8
 71
3
 72
8
 73
4
 74
0
 40
0
 40
0
 40
0
 40
0
 40
1
 40
1
 40
1
 40
1
 10
160.908939
 20
125.532038
 30
0.0
 10
159.487717
 20
125.532053
 30
0.0
 10
159.476915
 20
125.524470
 30
0.0
 10
159.652004
 20
124.649026
 30
0.0
  0
SPLINE
  5
16f
100
AcDbEntity
  8
Ebene_1
 62
7
100
AcDbSpline
 70
8
 71
3
 72
8
 73
4
 74
0
 40
0
 40
0
 40
0
 40
0
 40
1
 40
1
 40
1
 40
1
 10
159.652004
 20
124.649026
 30
0.0
 10
159.996378
 20
122.927172
 30
0.0
 10
159.229666
 20
121.695073
 30
0.0
 10
155.047096
 20
117.248896
 30
0.0
  0
LWPOLYLINE
  5
170
100
AcDbEntity
  8
Ebene_1
 62
7
100
AcDbPolyline
 90
3
 70
0
 10
187.509333
 20
95.818288
 30
0.0
 10
187.039247
 20
100.805316
 30
0.0
 10
185.412710
 20
103.535876
 30
0.0
  0
SPLINE
  5
171
100
AcDbEntity
  8
Ebene_1
 62
7
100
AcDbSpline
 70
8
 71
3
 72
8
 73
4
 74
0
 40
0
 40
0
 40
0
 40
0
 40
1
 40
1
 40
1
 40
1
 10
155.758423
 20
112.741507
 30
0.0
 10
158.378453
 20
112.631711
 30
0.0
 10
161.955662
 20
112.310558
 30
0.0
 10
163.707761
 20
112.027832
 30
0.0
  0
SPLINE
  5
172
100
AcDbEntity
  8
Ebene_1
 62
7
100
AcDbSpline
 70
8
 71
3
 72
8
 73
4
 74
0
 40
0
 40
0
 40
0
 40
0
 40
1
 40
1
 40
1
 40
1
 10
163.707761
 20
112.027832
 30
0.0
 10
166.962611
 20
111.502628
 30
0.0
 10
171.596049
 20
110.204337
 30
0.0
 10
171.596049
 20
109.817532
 30
0.0
  0
SPLINE
  5
173
100
AcDbEntity
  8
Ebene_1
 62
7
100
AcDbSpline
 70
8
 71
3
 72
8
 73
4
 74
0
 40
0
 40
0
 40
0
 40
0
 40
1
 40
1
 40
1
 40
1
 10
171.596049
 20
109.817532
 30
0.0
 10
171.596049
 20
109.458727
 30
0.0
 10
170.404762
 20
103.325587
 30
0.0
 10
170.225144
 20
102.759657
 30
0.0
  0
SPLINE
  5
174
100
AcDbEntity
  8
Ebene_1
 62
7
100
AcDbSpline
 70
8
 71
3
 72
8
 73
4
 74
0
 40
0
 40
0
 40
0
 40
0
 40
1
 40
1
 40
1
 40
1
 10
170.225144
 20
102.759657
 30
0.0
 10
170.074698
 20
102.285646
 30
0.0
 10
169.620230
 20
102.384269
 30
0.0
 10
165.797377
 20
103.720511
 30
0.0
  0
SPLINE
  5
175
100
AcDbEntity
  8
Ebene_1
 62
7
100
AcDbSpline
 70
8
 71
3
 72
8
 73
4
 74
0
 40
0
 40
0
 40
0
 40
0
 40
1
 40
1
 40
1
 40
1
 10
165.797377
 20
103.720511
 30
0.0
 10
161.022874
 20
105.389395
 30
0.0
 10
157.458050
 20
106.114915
 30
0.0
 10
154.035221
 20
106.114371
 30
0.0
  0
SPLINE
  5
176
100
AcDbEntity
  8
Ebene_1
 62
7
100
AcDbSpline
 70
8
 71
3
 72
8
 73
4
 74
0
 40
0
 40
0
 40
0
 40
0
 40
1
 40
1
 40
1
 40
1
 10
154.035221
 20
106.114371
 30
0.0
 10
150.666859
 20
106.113764
 30
0.0
 10
143.687921
 20
105.241939
 30
0.0
 10
142.957627
 20
104.730423
 30
0.0
  0
SPLINE
  5
177
100
AcDbEntity
  8
Ebene_1
 62
7
100
AcDbSpline
 70
8
 71
3
 72
8
 73
4
 74
0
 40
0
 40
0
 40
0
 40
0
 40
1
 40
1
 40
1
 40
1
 10
142.957627
 20
104.730423
 30
0.0
 10
142.599045
 20
104.479263
 30
0.0
 10
141.623979
 20
104.294040
 30
0.0
 10
140.658040
 20
104.293600
 30
0.0
  0
SPLINE
  5
178
100
AcDbEntity
  8
Ebene_1
 62
7
100
AcDbSpline
 70
8
 71
3
 72
8
 73
4
 74
0
 40
0
 40
0
 40
0
 40
0
 40
1
 40
1
 40
1
 40
1
 10
140.658040
 20
104.293600
 30
0.0
 10
138.359852
 20
104.292691
 30
0.0
 10
134.226956
 20
103.132860
 30
0.0
 10
129.223745
 20
101.085140
 30
0.0
  0
SPLINE
  5
179
100
AcDbEntity
  8
Ebene_1
 62
7
100
AcDbSpline
 70
8
 71
3
 72
8
 73
4
 74
0
 40
0
 40
0
 40
0
 40
0
 40
1
 40
1
 40
1
 40
1
 10
129.223745
 20
101.085140
 30
0.0
 10
123.303982
 20
98.662287
 30
0.0
 10
120.687025
 20
97.287263
 30
0.0
 10
117.460900
 20
94.904579
 30
0.0
  0
SPLINE
  5
17a
100
AcDbEntity
  8
Ebene_1
 62
7
100
AcDbSpline
 70
8
 71
3
 72
8
 73
4
 74
0
 40
0
 40
0
 40
0
 40
0
 40
1
 40
1
 40
1
 40
1
 10
117.460900
 20
94.904579
 30
0.0
 10
112.216230
 20
91.031092
 30
0.0
 10
109.717049
 20
87.963829
 30
0.0
 10
107.117854
 20
82.210524
 30
0.0
  0
SPLINE
  5
17b
100
AcDbEntity
  8
Ebene_1
 62
7
100
AcDbSpline
 70
8
 71
3
 72
8
 73
4
 74
0
 40
0
 40
0
 40
0
 40
0
 40
1
 40
1
 40
1
 40
1
 10
107.117854
 20
82.210524
 30
0.0
 10
105.357453
 20
78.313860
 30
0.0
 10
104.849033
 20
76.210510
 30
0.0
 10
104.849033
 20
72.824413
 30
0.0
  0
SPLINE
  5
17c
100
AcDbEntity
  8
Ebene_1
 62
7
100
AcDbSpline
 70
8
 71
3
 72
8
 73
4
 74
0
 40
0
 40
0
 40
0
 40
0
 40
1
 40
1
 40
1
 40
1
 10
104.849033
 20
72.824413
 30
0.0
 10
104.849033
 20
68.099546
 30
0.0
 10
106.424014
 20
63.471344
 30
0.0
 10
109.240071
 20
59.920997
 30
0.0
  0
SPLINE
  5
17d
100
AcDbEntity
  8
Ebene_1
 62
7
100
AcDbSpline
 70
8
 71
3
 72
8
 73
4
 74
0
 40
0
 40
0
 40
0
 40
0
 40
1
 40
1
 40
1
 40
1
 10
109.240071
 20
59.920997
 30
0.0
 10
110.937233
 20
57.781300
 30
0.0
 10
115.857561
 20
53.652849
 30
0.0
 10
118.431884
 20
52.208510
 30
0.0
  0
SPLINE
  5
17e
100
AcDbEntity
  8
Ebene_1
 62
7
100
AcDbSpline
 70
8
 71
3
 72
8
 73
4
 74
0
 40
0
 40
0
 40
0
 40
0
 40
1
 40
1
 40
1
 40
1
 10
118.431884
 20
52.208510
 30
0.0
 10
120.764599
 20
50.899733
 30
0.0
 10
125.182413
 20
49.297346
 30
0.0
 10
129.424072
 20
48.221531
 30
0.0
  0
SPLINE
  5
17f
100
AcDbEntity
  8
Ebene_1
 62
7
100
AcDbSpline
 70
8
 71
3
 72
8
 73
4
 74
0
 40
0
 40
0
 40
0
 40
0
 40
1
 40
1
 40
1
 40
1
 10
129.424072
 20
48.221531
 30
0.0
 10
132.355429
 20
47.478051
 30
0.0
 10
133.094082
 20
47.414054
 30
0.0
 10
138.677635
 20
47.419810
 30
0.0
  0
SPLINE
  5
180
100
AcDbEntity
  8
Ebene_1
 62
7
100
AcDbSpline
 70
8
 71
3
 72
8
 73
4
 74
0
 40
0
 40
0
 40
0
 40
0
 40
1
 40
1
 40
1
 40
1
 10
138.677635
 20
47.419810
 30
0.0
 10
143.849650
 20
47.425544
 30
0.0
 10
145.214030
 20
47.528287
 30
0.0
 10
147.918595
 20
48.118157
 30
0.0
  0
SPLINE
  5
181
100
AcDbEntity
  8
Ebene_1
 62
7
100
AcDbSpline
 70
8
 71
3
 72
8
 73
4
 74
0
 40
0
 40
0
 40
0
 40
0
 40
1
 40
1
 40
1
 40
1
 10
147.918595
 20
48.118157
 30
0.0
 10
154.651453
 20
49.586702
 30
0.0
 10
161.747606
 20
52.372705
 30
0.0
 10
165.860113
 20
55.162116
 30
0.0
  0
SPLINE
  5
182
100
AcDbEntity
  8
Ebene_1
 62
7
100
AcDbSpline
 70
8
 71
3
 72
8
 73
4
 74
0
 40
0
 40
0
 40
0
 40
0
 40
1
 40
1
 40
1
 40
1
 10
165.860113
 20
55.162116
 30
0.0
 10
166.929036
 20
55.887144
 30
0.0
 10
168.984011
 20
57.647408
 30
0.0
 10
170.426744
 20
59.073817
 30
0.0
  0
SPLINE
  5
183
100
AcDbEntity
  8
Ebene_1
 62
7
100
AcDbSpline
 70
8
 71
3
 72
8
 73
4
 74
0
 40
0
 40
0
 40
0
 40
0
 40
1
 40
1
 40
1
 40
1
 10
170.426744
 20
59.073817
 30
0.0
 10
172.777875
 20
61.398366
 30
0.0
 10
173.223686
 20
62.029080
 30
0.0
 10
174.726116
 20
65.156339
 30
0.0
  0
SPLINE
  5
184
100
AcDbEntity
  8
Ebene_1
 62
7
100
AcDbSpline
 70
8
 71
3
 72
8
 73
4
 74
0
 40
0
 40
0
 40
0
 40
0
 40
1
 40
1
 40
1
 40
1
 10
174.726116
 20
65.156339
 30
0.0
 10
177.272242
 20
70.456003
 30
0.0
 10
178.147340
 20
74.933111
 30
0.0
 10
177.389732
 20
78.783902
 30
0.0
  0
SPLINE
  5
185
100
AcDbEntity
  8
Ebene_1
 62
7
100
AcDbSpline
 70
8
 71
3
 72
8
 73
4
 74
0
 40
0
 40
0
 40
0
 40
0
 40
1
 40
1
 40
1
 40
1
 10
177.389732
 20
78.783902
 30
0.0
 10
176.698816
 20
82.295797
 30
0.0
 10
174.290901
 20
86.492370
 30
0.0
 10
171.555777
 20
88.951482
 30
0.0
  0
SPLINE
  5
186
100
AcDbEntity
  8
Ebene_1
 62
7
100
AcDbSpline
 70
8
 71
3
 72
8
 73
4
 74
0
 40
0
 40
0
 40
0
 40
0
 40
1
 40
1
 40
1
 40
1
 10
171.555777
 20
88.951482
 30
0.0
 10
169.526866
 20
90.775641
 30
0.0
 10
165.983382
 20
92.962290
 30
0.0
 10
164.133138
 20
93.531909
 30
0.0
  0
SPLINE
  5
187
100
AcDbEntity
  8
Ebene_1
 62
7
100
AcDbSpline
 70
8
 71
3
 72
8
 73
4
 74
0
 40
0
 40
0
 40
0
 40
0
 40
1
 40
1
 40
1
 40
1
 10
164.133138
 20
93.531909
 30
0.0
 10
163.315145
 20
93.783736
 30
0.0
 10
162.314978
 20
94.175490
 30
0.0
 10
161.910539
 20
94.402472
 30
0.0
  0
SPLINE
  5
188
100
AcDbEntity
  8
Ebene_1
 62
7
100
AcDbSpline
 70
8
 71
3
 72
8
 73
4
 74
0
 40
0
 40
0
 40
0
 40
0
 40
1
 40
1
 40
1
 40
1
 10
161.910539
 20
94.402472
 30
0.0
 10
161.213844
 20
94.793478
 30
0.0
 10
161.109827
 20
94.738579
 30
0.0
 10
159.931212
 20
93.357802
 30
0.0
  0
SPLINE
  5
189
100
AcDbEntity
  8
Ebene_1
 62
7
100
AcDbSpline
 70
8
 71
3
 72
8
 73
4
 74
0
 40
0
 40
0
 40
0
 40
0
 40
1
 40
1
 40
1
 40
1
 10
159.931212
 20
93.357802
 30
0.0
 10
159.247027
 20
92.556255
 30
0.0
 10
158.382903
 20
91.358965
 30
0.0
 10
158.010950
 20
90.697163
 30
0.0
  0
LWPOLYLINE
  5
18a
100
AcDbEntity
  8
Ebene_1
 62
7
100
AcDbPolyline
 90
3
 70
0
 10
155.047096
 20
117.248896
 30
0.0
 10
150.994722
 20
112.941138
 30
0.0
 10
155.758423
 20
112.741507
 30
0.0
  0
SPLINE
  5
18b
100
AcDbEntity
  8
Ebene_1
 62
7
100
AcDbSpline
 70
8
 71
3
 72
8
 73
4
 74
0
 40
0
 40
0
 40
0
 40
0
 40
1
 40
1
 40
1
 40
1
 10
159.753440
 20
87.313395
 30
0.0
 10
161.663989
 20
85.591061
 30
0.0
 10
162.215250
 20
84.903478
 30
0.0
 10
162.377060
 20
84.041001
 30
0.0
  0
SPLINE
  5
18c
100
AcDbEntity
  8
Ebene_1
 62
7
100
AcDbSpline
 70
8
 71
3
 72
8
 73
4
 74
0
 40
0
 40
0
 40
0
 40
0
 40
1
 40
1
 40
1
 40
1
 10
162.377060
 20
84.041001
 30
0.0
 10
162.554017
 20
83.097672
 30
0.0
 10
162.470400
 20
82.853213
 30
0.0
 10
161.762628
 20
82.244399
 30
0.0
  0
SPLINE
  5
18d
100
AcDbEntity
  8
Ebene_1
 62
7
100
AcDbSpline
 70
8
 71
3
 72
8
 73
4
 74
0
 40
0
 40
0
 40
0
 40
0
 40
1
 40
1
 40
1
 40
1
 10
161.762628
 20
82.244399
 30
0.0
 10
161.312035
 20
81.856814
 30
0.0
 10
160.658421
 20
81.539698
 30
0.0
 10
160.310159
 20
81.539698
 30
0.0
  0
SPLINE
  5
18e
100
AcDbEntity
  8
Ebene_1
 62
7
100
AcDbSpline
 70
8
 71
3
 72
8
 73
4
 74
0
 40
0
 40
0
 40
0
 40
0
 40
1
 40
1
 40
1
 40
1
 10
160.310159
 20
81.539698
 30
0.0
 10
159.697585
 20
81.539698
 30
0.0
 10
157.567226
 20
83.478717
 30
0.0
 10
156.184350
 20
85.294932
 30
0.0
  0
SPLINE
  5
18f
100
AcDbEntity
  8
Ebene_1
 62
7
100
AcDbSpline
 70
8
 71
3
 72
8
 73
4
 74
0
 40
0
 40
0
 40
0
 40
0
 40
1
 40
1
 40
1
 40
1
 10
156.184350
 20
85.294932
 30
0.0
 10
155.616130
 20
86.041227
 30
0.0
 10
155.449940
 20
86.110031
 30
0.0
 10
155.039115
 20
85.769082
 30
0.0
  0
SPLINE
  5
190
100
AcDbEntity
  8
Ebene_1
 62
7
100
AcDbSpline
 70
8
 71
3
 72
8
 73
4
 74
0
 40
0
 40
0
 40
0
 40
0
 40
1
 40
1
 40
1
 40
1
 10
155.039115
 20
85.769082
 30
0.0
 10
154.774814
 20
85.549729
 30
0.0
 10
154.240582
 20
84.747306
 30
0.0
 10
153.851933
 20
83.985920
 30
0.0
  0
SPLINE
  5
191
100
AcDbEntity
  8
Ebene_1
 62
7
100
AcDbSpline
 70
8
 71
3
 72
8
 73
4
 74
0
 40
0
 40
0
 40
0
 40
0
 40
1
 40
1
 40
1
 40
1
 10
153.851933
 20
83.985920
 30
0.0
 10
153.463285
 20
83.224536
 30
0.0
 10
152.722178
 20
82.021339
 30
0.0
 10
152.205032
 20
81.312152
 30
0.0
  0
SPLINE
  5
192
100
AcDbEntity
  8
Ebene_1
 62
7
100
AcDbSpline
 70
8
 71
3
 72
8
 73
4
 74
0
 40
0
 40
0
 40
0
 40
0
 40
1
 40
1
 40
1
 40
1
 10
152.205032
 20
81.312152
 30
0.0
 10
151.420339
 20
80.236097
 30
0.0
 10
151.095481
 20
80.022721
 30
0.0
 10
150.241907
 20
80.022721
 30
0.0
  0
SPLINE
  5
193
100
AcDbEntity
  8
Ebene_1
 62
7
100
AcDbSpline
 70
8
 71
3
 72
8
 73
4
 74
0
 40
0
 40
0
 40
0
 40
0
 40
1
 40
1
 40
1
 40
1
 10
150.241907
 20
80.022721
 30
0.0
 10
147.921129
 20
80.022721
 30
0.0
 10
147.998634
 20
82.025125
 30
0.0
 10
150.477827
 20
86.117847
 30
0.0
  0
SPLINE
  5
194
100
AcDbEntity
  8
Ebene_1
 62
7
100
AcDbSpline
 70
8
 71
3
 72
8
 73
4
 74
0
 40
0
 40
0
 40
0
 40
0
 40
1
 40
1
 40
1
 40
1
 10
150.477827
 20
86.117847
 30
0.0
 10
151.413321
 20
87.662196
 30
0.0
 10
152.178738
 20
89.064063
 30
0.0
 10
152.178738
 20
89.233106
 30
0.0
  0
SPLINE
  5
195
100
AcDbEntity
  8
Ebene_1
 62
7
100
AcDbSpline
 70
8
 71
3
 72
8
 73
4
 74
0
 40
0
 40
0
 40
0
 40
0
 40
1
 40
1
 40
1
 40
1
 10
152.178738
 20
89.233106
 30
0.0
 10
152.178738
 20
89.402149
 30
0.0
 10
151.373371
 20
90.300184
 30
0.0
 10
150.389027
 20
91.228745
 30
0.0
  0
SPLINE
  5
196
100
AcDbEntity
  8
Ebene_1
 62
7
100
AcDbSpline
 70
8
 71
3
 72
8
 73
4
 74
0
 40
0
 40
0
 40
0
 40
0
 40
1
 40
1
 40
1
 40
1
 10
150.389027
 20
91.228745
 30
0.0
 10
147.819761
 20
93.652408
 30
0.0
 10
147.407950
 20
94.669250
 30
0.0
 10
148.537992
 20
95.799289
 30
0.0
  0
SPLINE
  5
197
100
AcDbEntity
  8
Ebene_1
 62
7
100
AcDbSpline
 70
8
 71
3
 72
8
 73
4
 74
0
 40
0
 40
0
 40
0
 40
0
 40
1
 40
1
 40
1
 40
1
 10
148.537992
 20
95.799289
 30
0.0
 10
149.594840
 20
96.856137
 30
0.0
 10
150.476199
 20
96.570402
 30
0.0
 10
152.736535
 20
94.438114
 30
0.0
  0
SPLINE
  5
198
100
AcDbEntity
  8
Ebene_1
 62
7
100
AcDbSpline
 70
8
 71
3
 72
8
 73
4
 74
0
 40
0
 40
0
 40
0
 40
0
 40
1
 40
1
 40
1
 40
1
 10
152.736535
 20
94.438114
 30
0.0
 10
155.056017
 20
92.250029
 30
0.0
 10
154.955395
 20
92.245784
 30
0.0
 10
156.357306
 20
94.590883
 30
0.0
  0
SPLINE
  5
199
100
AcDbEntity
  8
Ebene_1
 62
7
100
AcDbSpline
 70
8
 71
3
 72
8
 73
4
 74
0
 40
0
 40
0
 40
0
 40
0
 40
1
 40
1
 40
1
 40
1
 10
156.357306
 20
94.590883
 30
0.0
 10
157.726467
 20
96.881213
 30
0.0
 10
159.579590
 20
97.803696
 30
0.0
 10
160.653673
 20
96.729616
 30
0.0
  0
SPLINE
  5
19a
100
AcDbEntity
  8
Ebene_1
 62
7
100
AcDbSpline
 70
8
 71
3
 72
8
 73
4
 74
0
 40
0
 40
0
 40
0
 40
0
 40
1
 40
1
 40
1
 40
1
 10
160.653673
 20
96.729616
 30
0.0
 10
161.376032
 20
96.007255
 30
0.0
 10
161.435385
 20
96.143337
 30
0.0
 10
161.735107
 20
99.209298
 30
0.0
  0
SPLINE
  5
19b
100
AcDbEntity
  8
Ebene_1
 62
7
100
AcDbSpline
 70
8
 71
3
 72
8
 73
4
 74
0
 40
0
 40
0
 40
0
 40
0
 40
1
 40
1
 40
1
 40
1
 10
161.735107
 20
99.209298
 30
0.0
 10
161.845075
 20
100.333897
 30
0.0
 10
162.044806
 20
101.321883
 30
0.0
 10
162.179003
 20
101.404820
 30
0.0
  0
SPLINE
  5
19c
100
AcDbEntity
  8
Ebene_1
 62
7
100
AcDbSpline
 70
8
 71
3
 72
8
 73
4
 74
0
 40
0
 40
0
 40
0
 40
0
 40
1
 40
1
 40
1
 40
1
 10
162.179003
 20
101.404820
 30
0.0
 10
162.734587
 20
101.748191
 30
0.0
 10
166.117109
 20
100.222685
 30
0.0
 10
168.883056
 20
98.381322
 30
0.0
  0
SPLINE
  5
19d
100
AcDbEntity
  8
Ebene_1
 62
7
100
AcDbSpline
 70
8
 71
3
 72
8
 73
4
 74
0
 40
0
 40
0
 40
0
 40
0
 40
1
 40
1
 40
1
 40
1
 10
168.883056
 20
98.381322
 30
0.0
 10
173.289357
 20
95.447924
 30
0.0
 10
175.948547
 20
92.438334
 30
0.0
 10
178.229856
 20
87.802851
 30
0.0
  0
SPLINE
  5
19e
100
AcDbEntity
  8
Ebene_1
 62
7
100
AcDbSpline
 70
8
 71
3
 72
8
 73
4
 74
0
 40
0
 40
0
 40
0
 40
0
 40
1
 40
1
 40
1
 40
1
 10
178.229856
 20
87.802851
 30
0.0
 10
180.829590
 20
82.520373
 30
0.0
 10
181.160204
 20
81.247544
 30
0.0
 10
181.117570
 20
76.685370
 30
0.0
  0
SPLINE
  5
19f
100
AcDbEntity
  8
Ebene_1
 62
7
100
AcDbSpline
 70
8
 71
3
 72
8
 73
4
 74
0
 40
0
 40
0
 40
0
 40
0
 40
1
 40
1
 40
1
 40
1
 10
181.117570
 20
76.685370
 30
0.0
 10
181.062299
 20
70.768049
 30
0.0
 10
179.417427
 20
65.620406
 30
0.0
 10
175.868554
 20
60.258346
 30
0.0
  0
SPLINE
  5
1a0
100
AcDbEntity
  8
Ebene_1
 62
7
100
AcDbSpline
 70
8
 71
3
 72
8
 73
4
 74
0
 40
0
 40
0
 40
0
 40
0
 40
1
 40
1
 40
1
 40
1
 10
175.868554
 20
60.258346
 30
0.0
 10
173.277672
 20
56.343729
 30
0.0
 10
171.747928
 20
54.603192
 30
0.0
 10
168.930632
 20
52.364391
 30
0.0
  0
SPLINE
  5
1a1
100
AcDbEntity
  8
Ebene_1
 62
7
100
AcDbSpline
 70
8
 71
3
 72
8
 73
4
 74
0
 40
0
 40
0
 40
0
 40
0
 40
1
 40
1
 40
1
 40
1
 10
168.930632
 20
52.364391
 30
0.0
 10
164.916546
 20
49.174547
 30
0.0
 10
160.329790
 20
46.865373
 30
0.0
 10
153.064787
 20
44.376835
 30
0.0
  0
SPLINE
  5
1a2
100
AcDbEntity
  8
Ebene_1
 62
7
100
AcDbSpline
 70
8
 71
3
 72
8
 73
4
 74
0
 40
0
 40
0
 40
0
 40
0
 40
1
 40
1
 40
1
 40
1
 10
153.064787
 20
44.376835
 30
0.0
 10
146.933426
 20
42.276611
 30
0.0
 10
144.999599
 20
41.959379
 30
0.0
 10
138.374232
 20
41.966924
 30
0.0
  0
SPLINE
  5
1a3
100
AcDbEntity
  8
Ebene_1
 62
7
100
AcDbSpline
 70
8
 71
3
 72
8
 73
4
 74
0
 40
0
 40
0
 40
0
 40
0
 40
1
 40
1
 40
1
 40
1
 10
138.374232
 20
41.966924
 30
0.0
 10
131.783677
 20
41.974951
 30
0.0
 10
128.729119
 20
42.416783
 30
0.0
 10
123.698032
 20
44.092295
 30
0.0
  0
SPLINE
  5
1a4
100
AcDbEntity
  8
Ebene_1
 62
7
100
AcDbSpline
 70
8
 71
3
 72
8
 73
4
 74
0
 40
0
 40
0
 40
0
 40
0
 40
1
 40
1
 40
1
 40
1
 10
123.698032
 20
44.092295
 30
0.0
 10
117.610990
 20
46.119473
 30
0.0
 10
113.576286
 20
48.796861
 30
0.0
 10
108.314806
 20
54.300466
 30
0.0
  0
SPLINE
  5
1a5
100
AcDbEntity
  8
Ebene_1
 62
7
100
AcDbSpline
 70
8
 71
3
 72
8
 73
4
 74
0
 40
0
 40
0
 40
0
 40
0
 40
1
 40
1
 40
1
 40
1
 10
108.314806
 20
54.300466
 30
0.0
 10
106.135220
 20
56.580357
 30
0.0
 10
105.291346
 20
57.739577
 30
0.0
 10
104.150927
 20
60.020362
 30
0.0
  0
SPLINE
  5
1a6
100
AcDbEntity
  8
Ebene_1
 62
7
100
AcDbSpline
 70
8
 71
3
 72
8
 73
4
 74
0
 40
0
 40
0
 40
0
 40
0
 40
1
 40
1
 40
1
 40
1
 10
104.150927
 20
60.020362
 30
0.0
 10
101.931688
 20
64.458745
 30
0.0
 10
101.659315
 20
65.848454
 30
0.0
 10
101.687363
 20
72.589530
 30
0.0
  0
SPLINE
  5
1a7
100
AcDbEntity
  8
Ebene_1
 62
7
100
AcDbSpline
 70
8
 71
3
 72
8
 73
4
 74
0
 40
0
 40
0
 40
0
 40
0
 40
1
 40
1
 40
1
 40
1
 10
101.687363
 20
72.589530
 30
0.0
 10
101.715227
 20
79.286526
 30
0.0
 10
102.125502
 20
81.323311
 30
0.0
 10
104.380300
 20
85.958657
 30
0.0
  0
SPLINE
  5
1a8
100
AcDbEntity
  8
Ebene_1
 62
7
100
AcDbSpline
 70
8
 71
3
 72
8
 73
4
 74
0
 40
0
 40
0
 40
0
 40
0
 40
1
 40
1
 40
1
 40
1
 10
104.380300
 20
85.958657
 30
0.0
 10
109.409174
 20
96.296846
 30
0.0
 10
119.063918
 20
104.428287
 30
0.0
 10
131.396141
 20
108.712001
 30
0.0
  0
SPLINE
  5
1a9
100
AcDbEntity
  8
Ebene_1
 62
7
100
AcDbSpline
 70
8
 71
3
 72
8
 73
4
 74
0
 40
0
 40
0
 40
0
 40
0
 40
1
 40
1
 40
1
 40
1
 10
131.396141
 20
108.712001
 30
0.0
 10
132.731073
 20
109.175704
 30
0.0
 10
133.875747
 20
109.595747
 30
0.0
 10
133.939859
 20
109.645428
 30
0.0
  0
SPLINE
  5
1aa
100
AcDbEntity
  8
Ebene_1
 62
7
100
AcDbSpline
 70
8
 71
3
 72
8
 73
4
 74
0
 40
0
 40
0
 40
0
 40
0
 40
1
 40
1
 40
1
 40
1
 10
133.939859
 20
109.645428
 30
0.0
 10
134.003959
 20
109.695103
 30
0.0
 10
131.835576
 20
112.061172
 30
0.0
 10
129.121242
 20
114.903345
 30
0.0
  0
LWPOLYLINE
  5
1ab
100
AcDbEntity
  8
Ebene_1
 62
7
100
AcDbPolyline
 90
3
 70
0
 10
158.010950
 20
90.697163
 30
0.0
 10
157.334677
 20
89.493883
 30
0.0
 10
159.753440
 20
87.313395
 30
0.0
  0
SPLINE
  5
1ac
100
AcDbEntity
  8
Ebene_1
 62
7
100
AcDbSpline
 70
8
 71
3
 72
8
 73
4
 74
0
 40
0
 40
0
 40
0
 40
0
 40
1
 40
1
 40
1
 40
1
 10
122.329982
 20
120.075406
 30
0.0
 10
120.112510
 20
120.080795
 30
0.0
 10
117.124816
 20
120.742590
 30
0.0
 10
115.441598
 20
121.601303
 30
0.0
  0
LWPOLYLINE
  5
1ad
100
AcDbEntity
  8
Ebene_1
 62
7
100
AcDbPolyline
 90
3
 70
0
 10
129.121242
 20
114.903345
 30
0.0
 10
124.186075
 20
120.070934
 30
0.0
 10
122.329982
 20
120.075406
 30
0.0
  0
SPLINE
  5
1ae
100
AcDbEntity
  8
Ebene_1
 62
7
100
AcDbSpline
 70
8
 71
3
 72
8
 73
4
 74
0
 40
0
 40
0
 40
0
 40
0
 40
1
 40
1
 40
1
 40
1
 10
112.189649
 20
120.793193
 30
0.0
 10
111.072485
 20
120.006204
 30
0.0
 10
108.246727
 20
117.439690
 30
0.0
 10
105.910182
 20
115.089830
 30
0.0
  0
SPLINE
  5
1af
100
AcDbEntity
  8
Ebene_1
 62
7
100
AcDbSpline
 70
8
 71
3
 72
8
 73
4
 74
0
 40
0
 40
0
 40
0
 40
0
 40
1
 40
1
 40
1
 40
1
 10
105.910182
 20
115.089830
 30
0.0
 10
101.704976
 20
110.860673
 30
0.0
 10
98.807057
 20
107.163577
 30
0.0
 10
96.375130
 20
102.925258
 30
0.0
  0
SPLINE
  5
1b0
100
AcDbEntity
  8
Ebene_1
 62
7
100
AcDbSpline
 70
8
 71
3
 72
8
 73
4
 74
0
 40
0
 40
0
 40
0
 40
0
 40
1
 40
1
 40
1
 40
1
 10
96.375130
 20
102.925258
 30
0.0
 10
95.182008
 20
100.845916
 30
0.0
 10
95.143858
 20
100.688308
 30
0.0
 10
94.692256
 20
95.974279
 30
0.0
  0
SPLINE
  5
1b1
100
AcDbEntity
  8
Ebene_1
 62
7
100
AcDbSpline
 70
8
 71
3
 72
8
 73
4
 74
0
 40
0
 40
0
 40
0
 40
0
 40
1
 40
1
 40
1
 40
1
 10
94.692256
 20
95.974279
 30
0.0
 10
94.097628
 20
89.767195
 30
0.0
 10
94.091699
 20
77.924999
 30
0.0
 10
94.680101
 20
71.782449
 30
0.0
  0
SPLINE
  5
1b2
100
AcDbEntity
  8
Ebene_1
 62
7
100
AcDbSpline
 70
8
 71
3
 72
8
 73
4
 74
0
 40
0
 40
0
 40
0
 40
0
 40
1
 40
1
 40
1
 40
1
 10
94.680101
 20
71.782449
 30
0.0
 10
95.417092
 20
64.089433
 30
0.0
 10
97.195828
 20
54.818885
 30
0.0
 10
99.246733
 20
47.981838
 30
0.0
  0
LWPOLYLINE
  5
1b3
100
AcDbEntity
  8
Ebene_1
 62
7
100
AcDbPolyline
 90
3
 70
0
 10
115.441598
 20
121.601303
 30
0.0
 10
114.220842
 20
122.224086
 30
0.0
 10
112.189649
 20
120.793193
 30
0.0
  0
SPLINE
  5
1b4
100
AcDbEntity
  8
Ebene_1
 62
7
100
AcDbSpline
 70
8
 71
3
 72
8
 73
4
 74
0
 40
0
 40
0
 40
0
 40
0
 40
1
 40
1
 40
1
 40
1
 10
104.328194
 20
46.253327
 30
0.0
 10
113.474426
 20
45.898861
 30
0.0
 10
121.119030
 20
43.377802
 30
0.0
 10
127.407775
 20
38.642068
 30
0.0
  0
SPLINE
  5
1b5
100
AcDbEntity
  8
Ebene_1
 62
7
100
AcDbSpline
 70
8
 71
3
 72
8
 73
4
 74
0
 40
0
 40
0
 40
0
 40
0
 40
1
 40
1
 40
1
 40
1
 10
127.407775
 20
38.642068
 30
0.0
 10
133.556932
 20
34.011463
 30
0.0
 10
137.131608
 20
26.431131
 30
0.0
 10
135.822888
 20
20.797319
 30
0.0
  0
LWPOLYLINE
  5
1b6
100
AcDbEntity
  8
Ebene_1
 62
7
100
AcDbPolyline
 90
3
 70
0
 10
99.246733
 20
47.981838
 30
0.0
 10
99.711567
 20
46.432233
 30
0.0
 10
104.328194
 20
46.253327
 30
0.0
  0
SPLINE
  5
1b7
100
AcDbEntity
  8
Ebene_1
 62
7
100
AcDbSpline
 70
8
 71
3
 72
8
 73
4
 74
0
 40
0
 40
0
 40
0
 40
0
 40
1
 40
1
 40
1
 40
1
 10
137.726351
 20
19.550934
 30
0.0
 10
138.917007
 20
19.484311
 30
0.0
 10
140.696237
 20
19.478578
 30
0.0
 10
141.680201
 20
19.538320
 30
0.0
  0
SPLINE
  5
1b8
100
AcDbEntity
  8
Ebene_1
 62
7
100
AcDbSpline
 70
8
 71
3
 72
8
 73
4
 74
0
 40
0
 40
0
 40
0
 40
0
 40
1
 40
1
 40
1
 40
1
 10
141.680201
 20
19.538320
 30
0.0
 10
142.664166
 20
19.598063
 30
0.0
 10
144.111119
 20
19.646912
 30
0.0
 10
144.895640
 20
19.646912
 30
0.0
  0
LWPOLYLINE
  5
1b9
100
AcDbEntity
  8
Ebene_1
 62
7
100
AcDbPolyline
 90
3
 70
0
 10
135.822888
 20
20.797319
 30
0.0
 10
135.561523
 20
19.672174
 30
0.0
 10
137.726351
 20
19.550934
 30
0.0
  0
SPLINE
  5
1ba
100
AcDbEntity
  8
Ebene_1
 62
7
100
AcDbSpline
 70
8
 71
3
 72
8
 73
4
 74
0
 40
0
 40
0
 40
0
 40
0
 40
1
 40
1
 40
1
 40
1
 10
127.123854
 20
53.617863
 30
0.0
 10
124.431054
 20
54.707209
 30
0.0
 10
123.409765
 20
60.544811
 30
0.0
 10
125.336723
 20
63.832931
 30
0.0
  0
SPLINE
  5
1bb
100
AcDbEntity
  8
Ebene_1
 62
7
100
AcDbSpline
 70
8
 71
3
 72
8
 73
4
 74
0
 40
0
 40
0
 40
0
 40
0
 40
1
 40
1
 40
1
 40
1
 10
125.336723
 20
63.832931
 30
0.0
 10
126.728199
 20
66.207298
 30
0.0
 10
130.915952
 20
69.310470
 30
0.0
 10
133.733890
 20
70.055318
 30
0.0
  0
SPLINE
  5
1bc
100
AcDbEntity
  8
Ebene_1
 62
7
100
AcDbSpline
 70
8
 71
3
 72
8
 73
4
 74
0
 40
0
 40
0
 40
0
 40
0
 40
1
 40
1
 40
1
 40
1
 10
133.733890
 20
70.055318
 30
0.0
 10
135.014952
 20
70.393935
 30
0.0
 10
135.225118
 20
70.375046
 30
0.0
 10
135.781814
 20
69.871246
 30
0.0
  0
SPLINE
  5
1bd
100
AcDbEntity
  8
Ebene_1
 62
7
100
AcDbSpline
 70
8
 71
3
 72
8
 73
4
 74
0
 40
0
 40
0
 40
0
 40
0
 40
1
 40
1
 40
1
 40
1
 10
135.781814
 20
69.871246
 30
0.0
 10
136.201629
 20
69.491312
 30
0.0
 10
136.402162
 20
68.933019
 30
0.0
 10
136.402162
 20
68.144145
 30
0.0
  0
SPLINE
  5
1be
100
AcDbEntity
  8
Ebene_1
 62
7
100
AcDbSpline
 70
8
 71
3
 72
8
 73
4
 74
0
 40
0
 40
0
 40
0
 40
0
 40
1
 40
1
 40
1
 40
1
 10
136.402162
 20
68.144145
 30
0.0
 10
136.402162
 20
66.660137
 30
0.0
 10
134.745296
 20
64.701965
 30
0.0
 10
133.107968
 20
64.250910
 30
0.0
  0
SPLINE
  5
1bf
100
AcDbEntity
  8
Ebene_1
 62
7
100
AcDbSpline
 70
8
 71
3
 72
8
 73
4
 74
0
 40
0
 40
0
 40
0
 40
0
 40
1
 40
1
 40
1
 40
1
 10
133.107968
 20
64.250910
 30
0.0
 10
131.663664
 20
63.853028
 30
0.0
 10
129.186190
 20
62.412226
 30
0.0
 10
128.134640
 20
61.358624
 30
0.0
  0
SPLINE
  5
1c0
100
AcDbEntity
  8
Ebene_1
 62
7
100
AcDbSpline
 70
8
 71
3
 72
8
 73
4
 74
0
 40
0
 40
0
 40
0
 40
0
 40
1
 40
1
 40
1
 40
1
 10
128.134640
 20
61.358624
 30
0.0
 10
126.682939
 20
59.904095
 30
0.0
 10
127.138417
 20
57.852082
 30
0.0
 10
129.017673
 20
57.380420
 30
0.0
  0
SPLINE
  5
1c1
100
AcDbEntity
  8
Ebene_1
 62
7
100
AcDbSpline
 70
8
 71
3
 72
8
 73
4
 74
0
 40
0
 40
0
 40
0
 40
0
 40
1
 40
1
 40
1
 40
1
 10
129.017673
 20
57.380420
 30
0.0
 10
130.289423
 20
57.061230
 30
0.0
 10
131.992065
 20
57.791054
 30
0.0
 10
134.611787
 20
59.778295
 30
0.0
  0
SPLINE
  5
1c2
100
AcDbEntity
  8
Ebene_1
 62
7
100
AcDbSpline
 70
8
 71
3
 72
8
 73
4
 74
0
 40
0
 40
0
 40
0
 40
0
 40
1
 40
1
 40
1
 40
1
 10
134.611787
 20
59.778295
 30
0.0
 10
135.981407
 20
60.817242
 30
0.0
 10
137.354123
 20
61.854604
 30
0.0
 10
137.662274
 20
62.083540
 30
0.0
  0
SPLINE
  5
1c3
100
AcDbEntity
  8
Ebene_1
 62
7
100
AcDbSpline
 70
8
 71
3
 72
8
 73
4
 74
0
 40
0
 40
0
 40
0
 40
0
 40
1
 40
1
 40
1
 40
1
 10
137.662274
 20
62.083540
 30
0.0
 10
138.181106
 20
62.469007
 30
0.0
 10
138.222536
 20
62.416702
 30
0.0
 10
138.222536
 20
61.376301
 30
0.0
  0
SPLINE
  5
1c4
100
AcDbEntity
  8
Ebene_1
 62
7
100
AcDbSpline
 70
8
 71
3
 72
8
 73
4
 74
0
 40
0
 40
0
 40
0
 40
0
 40
1
 40
1
 40
1
 40
1
 10
138.222536
 20
61.376301
 30
0.0
 10
138.222536
 20
60.367799
 30
0.0
 10
137.950839
 20
59.981967
 30
0.0
 10
135.567830
 20
57.606526
 30
0.0
  0
SPLINE
  5
1c5
100
AcDbEntity
  8
Ebene_1
 62
7
100
AcDbSpline
 70
8
 71
3
 72
8
 73
4
 74
0
 40
0
 40
0
 40
0
 40
0
 40
1
 40
1
 40
1
 40
1
 10
135.567830
 20
57.606526
 30
0.0
 10
131.935212
 20
53.985435
 30
0.0
 10
129.296422
 20
52.738958
 30
0.0
 10
127.123854
 20
53.617863
 30
0.0
  0
LWPOLYLINE
  5
1c6
100
AcDbEntity
  8
Ebene_1
 62
7
100
AcDbPolyline
 90
1
 70
1
 10
144.895640
 20
19.646912
 30
0.0
  0
SPLINE
  5
1c7
100
AcDbEntity
  8
Ebene_1
 62
7
100
AcDbSpline
 70
8
 71
3
 72
8
 73
4
 74
0
 40
0
 40
0
 40
0
 40
0
 40
1
 40
1
 40
1
 40
1
 10
139.739517
 20
55.137512
 30
0.0
 10
139.357967
 20
55.378404
 30
0.0
 10
139.269855
 20
56.699185
 30
0.0
 10
139.194288
 20
63.310259
 30
0.0
  0
SPLINE
  5
1c8
100
AcDbEntity
  8
Ebene_1
 62
7
100
AcDbSpline
 70
8
 71
3
 72
8
 73
4
 74
0
 40
0
 40
0
 40
0
 40
0
 40
1
 40
1
 40
1
 40
1
 10
139.194288
 20
63.310259
 30
0.0
 10
139.105993
 20
71.035759
 30
0.0
 10
139.117345
 20
71.208917
 30
0.0
 10
139.756832
 20
71.848359
 30
0.0
  0
SPLINE
  5
1c9
100
AcDbEntity
  8
Ebene_1
 62
7
100
AcDbSpline
 70
8
 71
3
 72
8
 73
4
 74
0
 40
0
 40
0
 40
0
 40
0
 40
1
 40
1
 40
1
 40
1
 10
139.756832
 20
71.848359
 30
0.0
 10
140.607769
 20
72.699298
 30
0.0
 10
141.956508
 20
72.457180
 30
0.0
 10
143.227456
 20
71.225321
 30
0.0
  0
SPLINE
  5
1ca
100
AcDbEntity
  8
Ebene_1
 62
7
100
AcDbSpline
 70
8
 71
3
 72
8
 73
4
 74
0
 40
0
 40
0
 40
0
 40
0
 40
1
 40
1
 40
1
 40
1
 10
143.227456
 20
71.225321
 30
0.0
 10
144.126164
 20
70.354269
 30
0.0
 10
144.164165
 20
70.345574
 30
0.0
 10
144.527804
 20
70.927844
 30
0.0
  0
SPLINE
  5
1cb
100
AcDbEntity
  8
Ebene_1
 62
7
100
AcDbSpline
 70
8
 71
3
 72
8
 73
4
 74
0
 40
0
 40
0
 40
0
 40
0
 40
1
 40
1
 40
1
 40
1
 10
144.527804
 20
70.927844
 30
0.0
 10
145.053367
 20
71.769400
 30
0.0
 10
146.758578
 20
71.725890
 30
0.0
 10
147.774306
 20
70.845007
 30
0.0
  0
SPLINE
  5
1cc
100
AcDbEntity
  8
Ebene_1
 62
7
100
AcDbSpline
 70
8
 71
3
 72
8
 73
4
 74
0
 40
0
 40
0
 40
0
 40
0
 40
1
 40
1
 40
1
 40
1
 10
147.774306
 20
70.845007
 30
0.0
 10
148.401914
 20
70.300712
 30
0.0
 10
148.621780
 20
69.731960
 30
0.0
 10
148.859203
 20
68.038598
 30
0.0
  0
SPLINE
  5
1cd
100
AcDbEntity
  8
Ebene_1
 62
7
100
AcDbSpline
 70
8
 71
3
 72
8
 73
4
 74
0
 40
0
 40
0
 40
0
 40
0
 40
1
 40
1
 40
1
 40
1
 10
148.859203
 20
68.038598
 30
0.0
 10
149.022973
 20
66.870525
 30
0.0
 10
149.445954
 20
64.053000
 30
0.0
 10
149.799158
 20
61.777431
 30
0.0
  0
SPLINE
  5
1ce
100
AcDbEntity
  8
Ebene_1
 62
7
100
AcDbSpline
 70
8
 71
3
 72
8
 73
4
 74
0
 40
0
 40
0
 40
0
 40
0
 40
1
 40
1
 40
1
 40
1
 10
149.799158
 20
61.777431
 30
0.0
 10
150.152373
 20
59.501861
 30
0.0
 10
150.355911
 20
57.299593
 30
0.0
 10
150.251482
 20
56.883505
 30
0.0
  0
SPLINE
  5
1cf
100
AcDbEntity
  8
Ebene_1
 62
7
100
AcDbSpline
 70
8
 71
3
 72
8
 73
4
 74
0
 40
0
 40
0
 40
0
 40
0
 40
1
 40
1
 40
1
 40
1
 10
150.251482
 20
56.883505
 30
0.0
 10
149.857123
 20
55.312284
 30
0.0
 10
147.583520
 20
55.663609
 30
0.0
 10
146.854499
 20
57.408422
 30
0.0
  0
SPLINE
  5
1d0
100
AcDbEntity
  8
Ebene_1
 62
7
100
AcDbSpline
 70
8
 71
3
 72
8
 73
4
 74
0
 40
0
 40
0
 40
0
 40
0
 40
1
 40
1
 40
1
 40
1
 10
146.854499
 20
57.408422
 30
0.0
 10
146.612180
 20
57.988350
 30
0.0
 10
146.200357
 20
59.994077
 30
0.0
 10
145.939324
 20
61.865590
 30
0.0
  0
SPLINE
  5
1d1
100
AcDbEntity
  8
Ebene_1
 62
7
100
AcDbSpline
 70
8
 71
3
 72
8
 73
4
 74
0
 40
0
 40
0
 40
0
 40
0
 40
1
 40
1
 40
1
 40
1
 10
145.939324
 20
61.865590
 30
0.0
 10
145.678303
 20
63.737104
 30
0.0
 10
145.287029
 20
65.607505
 30
0.0
 10
145.069834
 20
66.022034
 30
0.0
  0
LWPOLYLINE
  5
1d2
100
AcDbEntity
  8
Ebene_1
 62
7
100
AcDbPolyline
 90
1
 70
1
 10
127.123854
 20
53.617863
 30
0.0
  0
SPLINE
  5
1d3
100
AcDbEntity
  8
Ebene_1
 62
7
100
AcDbSpline
 70
8
 71
3
 72
8
 73
4
 74
0
 40
0
 40
0
 40
0
 40
0
 40
1
 40
1
 40
1
 40
1
 10
144.148891
 20
65.972881
 30
0.0
 10
143.401535
 20
64.832268
 30
0.0
 10
143.147027
 20
63.447025
 30
0.0
 10
142.905315
 20
59.204308
 30
0.0
  0
LWPOLYLINE
  5
1d4
100
AcDbEntity
  8
Ebene_1
 62
7
100
AcDbPolyline
 90
3
 70
0
 10
145.069834
 20
66.022034
 30
0.0
 10
144.674936
 20
66.775722
 30
0.0
 10
144.148891
 20
65.972881
 30
0.0
  0
SPLINE
  5
1d5
100
AcDbEntity
  8
Ebene_1
 62
7
100
AcDbSpline
 70
8
 71
3
 72
8
 73
4
 74
0
 40
0
 40
0
 40
0
 40
0
 40
1
 40
1
 40
1
 40
1
 10
141.777819
 20
55.159955
 30
0.0
 10
140.661308
 20
54.770735
 30
0.0
 10
140.326291
 20
54.767043
 30
0.0
 10
139.739517
 20
55.137502
 30
0.0
  0
LWPOLYLINE
  5
1d6
100
AcDbEntity
  8
Ebene_1
 62
7
100
AcDbPolyline
 90
3
 70
0
 10
142.905315
 20
59.204308
 30
0.0
 10
142.693086
 20
55.479017
 30
0.0
 10
141.777819
 20
55.159955
 30
0.0
  0
SPLINE
  5
1d7
100
AcDbEntity
  8
Ebene_1
 62
7
100
AcDbSpline
 70
8
 71
3
 72
8
 73
4
 74
0
 40
0
 40
0
 40
0
 40
0
 40
1
 40
1
 40
1
 40
1
 10
153.359934
 20
58.632398
 30
0.0
 10
152.330698
 20
59.191814
 30
0.0
 10
151.737617
 20
60.126693
 30
0.0
 10
151.144147
 20
62.125120
 30
0.0
  0
SPLINE
  5
1d8
100
AcDbEntity
  8
Ebene_1
 62
7
100
AcDbSpline
 70
8
 71
3
 72
8
 73
4
 74
0
 40
0
 40
0
 40
0
 40
0
 40
1
 40
1
 40
1
 40
1
 10
151.144147
 20
62.125120
 30
0.0
 10
150.032234
 20
65.869312
 30
0.0
 10
150.728402
 20
68.247154
 30
0.0
 10
153.850592
 20
71.369340
 30
0.0
  0
SPLINE
  5
1d9
100
AcDbEntity
  8
Ebene_1
 62
7
100
AcDbSpline
 70
8
 71
3
 72
8
 73
4
 74
0
 40
0
 40
0
 40
0
 40
0
 40
1
 40
1
 40
1
 40
1
 10
153.850592
 20
71.369340
 30
0.0
 10
156.053868
 20
73.572622
 30
0.0
 10
159.143022
 20
75.471788
 30
0.0
 10
160.523547
 20
75.471788
 30
0.0
  0
SPLINE
  5
1da
100
AcDbEntity
  8
Ebene_1
 62
7
100
AcDbSpline
 70
8
 71
3
 72
8
 73
4
 74
0
 40
0
 40
0
 40
0
 40
0
 40
1
 40
1
 40
1
 40
1
 10
160.523547
 20
75.471788
 30
0.0
 10
162.168213
 20
75.471788
 30
0.0
 10
162.733612
 20
73.027072
 30
0.0
 10
161.508154
 20
71.214460
 30
0.0
  0
SPLINE
  5
1db
100
AcDbEntity
  8
Ebene_1
 62
7
100
AcDbSpline
 70
8
 71
3
 72
8
 73
4
 74
0
 40
0
 40
0
 40
0
 40
0
 40
1
 40
1
 40
1
 40
1
 10
161.508154
 20
71.214460
 30
0.0
 10
161.100860
 20
70.612034
 30
0.0
 10
160.040079
 20
69.797317
 30
0.0
 10
158.878342
 20
69.194677
 30
0.0
  0
SPLINE
  5
1dc
100
AcDbEntity
  8
Ebene_1
 62
7
100
AcDbSpline
 70
8
 71
3
 72
8
 73
4
 74
0
 40
0
 40
0
 40
0
 40
0
 40
1
 40
1
 40
1
 40
1
 10
158.878342
 20
69.194677
 30
0.0
 10
156.684503
 20
68.056643
 30
0.0
 10
155.009450
 20
66.884195
 30
0.0
 10
154.233403
 20
65.943468
 30
0.0
  0
SPLINE
  5
1dd
100
AcDbEntity
  8
Ebene_1
 62
7
100
AcDbSpline
 70
8
 71
3
 72
8
 73
4
 74
0
 40
0
 40
0
 40
0
 40
0
 40
1
 40
1
 40
1
 40
1
 10
154.233403
 20
65.943468
 30
0.0
 10
153.697119
 20
65.293386
 30
0.0
 10
153.528349
 20
63.752233
 30
0.0
 10
153.927902
 20
63.153838
 30
0.0
  0
SPLINE
  5
1de
100
AcDbEntity
  8
Ebene_1
 62
7
100
AcDbSpline
 70
8
 71
3
 72
8
 73
4
 74
0
 40
0
 40
0
 40
0
 40
0
 40
1
 40
1
 40
1
 40
1
 10
153.927902
 20
63.153838
 30
0.0
 10
154.272506
 20
62.637759
 30
0.0
 10
155.400954
 20
62.122077
 30
0.0
 10
156.178778
 20
62.125229
 30
0.0
  0
SPLINE
  5
1df
100
AcDbEntity
  8
Ebene_1
 62
7
100
AcDbSpline
 70
8
 71
3
 72
8
 73
4
 74
0
 40
0
 40
0
 40
0
 40
0
 40
1
 40
1
 40
1
 40
1
 10
156.178778
 20
62.125229
 30
0.0
 10
157.290071
 20
62.129701
 30
0.0
 10
159.886583
 20
63.783271
 30
0.0
 10
162.180734
 20
65.947456
 30
0.0
  0
SPLINE
  5
1e0
100
AcDbEntity
  8
Ebene_1
 62
7
100
AcDbSpline
 70
8
 71
3
 72
8
 73
4
 74
0
 40
0
 40
0
 40
0
 40
0
 40
1
 40
1
 40
1
 40
1
 10
162.180734
 20
65.947456
 30
0.0
 10
164.223359
 20
67.874366
 30
0.0
 10
164.296278
 20
67.913676
 30
0.0
 10
164.478808
 20
67.186392
 30
0.0
  0
SPLINE
  5
1e1
100
AcDbEntity
  8
Ebene_1
 62
7
100
AcDbSpline
 70
8
 71
3
 72
8
 73
4
 74
0
 40
0
 40
0
 40
0
 40
0
 40
1
 40
1
 40
1
 40
1
 10
164.478808
 20
67.186392
 30
0.0
 10
164.754106
 20
66.089548
 30
0.0
 10
163.983219
 20
64.831208
 30
0.0
 10
161.342996
 20
62.067721
 30
0.0
  0
SPLINE
  5
1e2
100
AcDbEntity
  8
Ebene_1
 62
7
100
AcDbSpline
 70
8
 71
3
 72
8
 73
4
 74
0
 40
0
 40
0
 40
0
 40
0
 40
1
 40
1
 40
1
 40
1
 10
161.342996
 20
62.067721
 30
0.0
 10
157.999621
 20
58.568242
 30
0.0
 10
155.475993
 20
57.482258
 30
0.0
 10
153.359934
 20
58.632398
 30
0.0
  0
LWPOLYLINE
  5
1e3
100
AcDbEntity
  8
Ebene_1
 62
7
100
AcDbPolyline
 90
1
 70
1
 10
139.739517
 20
55.137502
 30
0.0
  0
SPLINE
  5
1e4
100
AcDbEntity
  8
Ebene_1
 62
7
100
AcDbSpline
 70
8
 71
3
 72
8
 73
4
 74
0
 40
0
 40
0
 40
0
 40
0
 40
1
 40
1
 40
1
 40
1
 10
115.467869
 20
67.576692
 30
0.0
 10
114.864124
 20
67.957824
 30
0.0
 10
114.631277
 20
71.803526
 30
0.0
 10
114.589836
 20
82.078150
 30
0.0
  0
LWPOLYLINE
  5
1e5
100
AcDbEntity
  8
Ebene_1
 62
7
100
AcDbPolyline
 90
1
 70
1
 10
153.359934
 20
58.632398
 30
0.0
  0
SPLINE
  5
1e6
100
AcDbEntity
  8
Ebene_1
 62
7
100
AcDbSpline
 70
8
 71
3
 72
8
 73
4
 74
0
 40
0
 40
0
 40
0
 40
0
 40
1
 40
1
 40
1
 40
1
 10
115.392073
 20
90.370202
 30
0.0
 10
116.563109
 20
90.819913
 30
0.0
 10
118.246510
 20
90.483059
 30
0.0
 10
118.917462
 20
89.664756
 30
0.0
  0
SPLINE
  5
1e7
100
AcDbEntity
  8
Ebene_1
 62
7
100
AcDbSpline
 70
8
 71
3
 72
8
 73
4
 74
0
 40
0
 40
0
 40
0
 40
0
 40
1
 40
1
 40
1
 40
1
 10
118.917462
 20
89.664756
 30
0.0
 10
119.525702
 20
88.922942
 30
0.0
 10
119.526585
 20
88.989762
 30
0.0
 10
118.817585
 20
82.146490
 30
0.0
  0
SPLINE
  5
1e8
100
AcDbEntity
  8
Ebene_1
 62
7
100
AcDbSpline
 70
8
 71
3
 72
8
 73
4
 74
0
 40
0
 40
0
 40
0
 40
0
 40
1
 40
1
 40
1
 40
1
 10
118.817585
 20
82.146490
 30
0.0
 10
118.653345
 20
80.561248
 30
0.0
 10
118.424958
 20
76.760445
 30
0.0
 10
118.310059
 20
73.700264
 30
0.0
  0
SPLINE
  5
1e9
100
AcDbEntity
  8
Ebene_1
 62
7
100
AcDbSpline
 70
8
 71
3
 72
8
 73
4
 74
0
 40
0
 40
0
 40
0
 40
0
 40
1
 40
1
 40
1
 40
1
 10
118.310059
 20
73.700264
 30
0.0
 10
118.088897
 20
67.810194
 30
0.0
 10
117.944964
 20
67.275187
 30
0.0
 10
116.583990
 20
67.284753
 30
0.0
  0
SPLINE
  5
1ea
100
AcDbEntity
  8
Ebene_1
 62
7
100
AcDbSpline
 70
8
 71
3
 72
8
 73
4
 74
0
 40
0
 40
0
 40
0
 40
0
 40
1
 40
1
 40
1
 40
1
 10
116.583990
 20
67.284753
 30
0.0
 10
116.220454
 20
67.287161
 30
0.0
 10
115.718226
 20
67.418681
 30
0.0
 10
115.467926
 20
67.576692
 30
0.0
  0
LWPOLYLINE
  5
1eb
100
AcDbEntity
  8
Ebene_1
 62
7
100
AcDbPolyline
 90
3
 70
0
 10
114.589836
 20
82.078150
 30
0.0
 10
114.557728
 20
90.049792
 30
0.0
 10
115.392073
 20
90.370202
 30
0.0
  0
SPLINE
  5
1ec
100
AcDbEntity
  8
Ebene_1
 62
7
100
AcDbSpline
 70
8
 71
3
 72
8
 73
4
 74
0
 40
0
 40
0
 40
0
 40
0
 40
1
 40
1
 40
1
 40
1
 10
121.038647
 20
70.487348
 30
0.0
 10
120.604980
 20
71.149208
 30
0.0
 10
120.523461
 20
72.187697
 30
0.0
 10
120.500711
 20
77.340094
 30
0.0
  0
LWPOLYLINE
  5
1ed
100
AcDbEntity
  8
Ebene_1
 62
7
100
AcDbPolyline
 90
1
 70
1
 10
115.467926
 20
67.576692
 30
0.0
  0
SPLINE
  5
1ee
100
AcDbEntity
  8
Ebene_1
 62
7
100
AcDbSpline
 70
8
 71
3
 72
8
 73
4
 74
0
 40
0
 40
0
 40
0
 40
0
 40
1
 40
1
 40
1
 40
1
 10
121.225363
 20
84.021736
 30
0.0
 10
121.775786
 20
84.467787
 30
0.0
 10
122.249748
 20
84.586418
 30
0.0
 10
122.996956
 20
84.465162
 30
0.0
  0
SPLINE
  5
1ef
100
AcDbEntity
  8
Ebene_1
 62
7
100
AcDbSpline
 70
8
 71
3
 72
8
 73
4
 74
0
 40
0
 40
0
 40
0
 40
0
 40
1
 40
1
 40
1
 40
1
 10
122.996956
 20
84.465162
 30
0.0
 10
124.651277
 20
84.196703
 30
0.0
 10
124.873116
 20
83.833600
 30
0.0
 10
124.873116
 20
81.394293
 30
0.0
  0
SPLINE
  5
1f0
100
AcDbEntity
  8
Ebene_1
 62
7
100
AcDbSpline
 70
8
 71
3
 72
8
 73
4
 74
0
 40
0
 40
0
 40
0
 40
0
 40
1
 40
1
 40
1
 40
1
 10
124.873116
 20
81.394293
 30
0.0
 10
124.873116
 20
78.218078
 30
0.0
 10
124.287133
 20
71.188228
 30
0.0
 10
123.955831
 20
70.389913
 30
0.0
  0
SPLINE
  5
1f1
100
AcDbEntity
  8
Ebene_1
 62
7
100
AcDbSpline
 70
8
 71
3
 72
8
 73
4
 74
0
 40
0
 40
0
 40
0
 40
0
 40
1
 40
1
 40
1
 40
1
 10
123.955831
 20
70.389913
 30
0.0
 10
123.532748
 20
69.370430
 30
0.0
 10
121.731031
 20
69.430609
 30
0.0
 10
121.038624
 20
70.487347
 30
0.0
  0
LWPOLYLINE
  5
1f2
100
AcDbEntity
  8
Ebene_1
 62
7
100
AcDbPolyline
 90
3
 70
0
 10
120.500711
 20
77.340094
 30
0.0
 10
120.473878
 20
83.412763
 30
0.0
 10
121.225363
 20
84.021736
 30
0.0
  0
SPLINE
  5
1f3
100
AcDbEntity
  8
Ebene_1
 62
7
100
AcDbSpline
 70
8
 71
3
 72
8
 73
4
 74
0
 40
0
 40
0
 40
0
 40
0
 40
1
 40
1
 40
1
 40
1
 10
126.536805
 20
73.356113
 30
0.0
 10
126.430965
 20
73.527435
 30
0.0
 10
126.320470
 20
77.163812
 30
0.0
 10
126.291355
 20
81.436953
 30
0.0
  0
SPLINE
  5
1f4
100
AcDbEntity
  8
Ebene_1
 62
7
100
AcDbSpline
 70
8
 71
3
 72
8
 73
4
 74
0
 40
0
 40
0
 40
0
 40
0
 40
1
 40
1
 40
1
 40
1
 10
126.291355
 20
81.436953
 30
0.0
 10
126.232301
 20
90.095122
 30
0.0
 10
126.281035
 20
90.338169
 30
0.0
 10
128.065437
 20
90.338169
 30
0.0
  0
SPLINE
  5
1f5
100
AcDbEntity
  8
Ebene_1
 62
7
100
AcDbSpline
 70
8
 71
3
 72
8
 73
4
 74
0
 40
0
 40
0
 40
0
 40
0
 40
1
 40
1
 40
1
 40
1
 10
128.065437
 20
90.338169
 30
0.0
 10
128.784871
 20
90.338169
 30
0.0
 10
129.419244
 20
90.057483
 30
0.0
 10
130.150099
 20
89.415783
 30
0.0
  0
SPLINE
  5
1f6
100
AcDbEntity
  8
Ebene_1
 62
7
100
AcDbSpline
 70
8
 71
3
 72
8
 73
4
 74
0
 40
0
 40
0
 40
0
 40
0
 40
1
 40
1
 40
1
 40
1
 10
130.150099
 20
89.415783
 30
0.0
 10
131.111566
 20
88.571607
 30
0.0
 10
131.226086
 20
88.538868
 30
0.0
 10
131.500730
 20
89.029646
 30
0.0
  0
SPLINE
  5
1f7
100
AcDbEntity
  8
Ebene_1
 62
7
100
AcDbSpline
 70
8
 71
3
 72
8
 73
4
 74
0
 40
0
 40
0
 40
0
 40
0
 40
1
 40
1
 40
1
 40
1
 10
131.500730
 20
89.029646
 30
0.0
 10
131.909457
 20
89.759991
 30
0.0
 10
134.019989
 20
89.755880
 30
0.0
 10
134.829647
 20
89.023110
 30
0.0
  0
SPLINE
  5
1f8
100
AcDbEntity
  8
Ebene_1
 62
7
100
AcDbSpline
 70
8
 71
3
 72
8
 73
4
 74
0
 40
0
 40
0
 40
0
 40
0
 40
1
 40
1
 40
1
 40
1
 10
134.829647
 20
89.023110
 30
0.0
 10
135.511630
 20
88.405918
 30
0.0
 10
136.098771
 20
86.382533
 30
0.0
 10
136.098771
 20
84.649475
 30
0.0
  0
SPLINE
  5
1f9
100
AcDbEntity
  8
Ebene_1
 62
7
100
AcDbSpline
 70
8
 71
3
 72
8
 73
4
 74
0
 40
0
 40
0
 40
0
 40
0
 40
1
 40
1
 40
1
 40
1
 10
136.098771
 20
84.649475
 30
0.0
 10
136.098771
 20
84.004650
 30
0.0
 10
136.371821
 20
81.990853
 30
0.0
 10
136.705566
 20
80.174369
 30
0.0
  0
SPLINE
  5
1fa
100
AcDbEntity
  8
Ebene_1
 62
7
100
AcDbSpline
 70
8
 71
3
 72
8
 73
4
 74
0
 40
0
 40
0
 40
0
 40
0
 40
1
 40
1
 40
1
 40
1
 10
136.705566
 20
80.174369
 30
0.0
 10
137.539922
 20
75.633062
 30
0.0
 10
137.514706
 20
74.640744
 30
0.0
 10
136.553858
 20
74.202953
 30
0.0
  0
SPLINE
  5
1fb
100
AcDbEntity
  8
Ebene_1
 62
7
100
AcDbSpline
 70
8
 71
3
 72
8
 73
4
 74
0
 40
0
 40
0
 40
0
 40
0
 40
1
 40
1
 40
1
 40
1
 10
136.553858
 20
74.202953
 30
0.0
 10
135.502973
 20
73.724131
 30
0.0
 10
134.361120
 20
74.289230
 30
0.0
 10
133.835510
 20
75.548267
 30
0.0
  0
SPLINE
  5
1fc
100
AcDbEntity
  8
Ebene_1
 62
7
100
AcDbSpline
 70
8
 71
3
 72
8
 73
4
 74
0
 40
0
 40
0
 40
0
 40
0
 40
1
 40
1
 40
1
 40
1
 10
133.835510
 20
75.548267
 30
0.0
 10
133.609267
 20
76.090213
 30
0.0
 10
133.210471
 20
78.071634
 30
0.0
 10
132.949300
 20
79.951425
 30
0.0
  0
SPLINE
  5
1fd
100
AcDbEntity
  8
Ebene_1
 62
7
100
AcDbSpline
 70
8
 71
3
 72
8
 73
4
 74
0
 40
0
 40
0
 40
0
 40
0
 40
1
 40
1
 40
1
 40
1
 10
132.949300
 20
79.951425
 30
0.0
 10
132.278451
 20
84.779944
 30
0.0
 10
131.735561
 20
85.615577
 30
0.0
 10
130.784105
 20
83.284173
 30
0.0
  0
SPLINE
  5
1fe
100
AcDbEntity
  8
Ebene_1
 62
7
100
AcDbSpline
 70
8
 71
3
 72
8
 73
4
 74
0
 40
0
 40
0
 40
0
 40
0
 40
1
 40
1
 40
1
 40
1
 10
130.784105
 20
83.284173
 30
0.0
 10
130.443251
 20
82.448967
 30
0.0
 10
130.166440
 20
80.551921
 30
0.0
 10
129.998289
 20
77.898936
 30
0.0
  0
SPLINE
  5
1ff
100
AcDbEntity
  8
Ebene_1
 62
7
100
AcDbSpline
 70
8
 71
3
 72
8
 73
4
 74
0
 40
0
 40
0
 40
0
 40
0
 40
1
 40
1
 40
1
 40
1
 10
129.998289
 20
77.898936
 30
0.0
 10
129.788307
 20
74.585965
 30
0.0
 10
129.639546
 20
73.730636
 30
0.0
 10
129.219995
 20
73.423852
 30
0.0
  0
SPLINE
  5
200
100
AcDbEntity
  8
Ebene_1
 62
7
100
AcDbSpline
 70
8
 71
3
 72
8
 73
4
 74
0
 40
0
 40
0
 40
0
 40
0
 40
1
 40
1
 40
1
 40
1
 10
129.219995
 20
73.423852
 30
0.0
 10
128.594463
 20
72.966452
 30
0.0
 10
126.805532
 20
72.921259
 30
0.0
 10
126.536805
 20
73.356059
 30
0.0
  0
LWPOLYLINE
  5
201
100
AcDbEntity
  8
Ebene_1
 62
7
100
AcDbPolyline
 90
1
 70
1
 10
121.038624
 20
70.487347
 30
0.0
  0
SPLINE
  5
202
100
AcDbEntity
  8
Ebene_1
 62
7
100
AcDbSpline
 70
8
 71
3
 72
8
 73
4
 74
0
 40
0
 40
0
 40
0
 40
0
 40
1
 40
1
 40
1
 40
1
 10
145.200637
 20
78.112454
 30
0.0
 10
144.950337
 20
78.203536
 30
0.0
 10
144.374124
 20
78.624016
 30
0.0
 10
143.920172
 20
79.046861
 30
0.0
  0
SPLINE
  5
203
100
AcDbEntity
  8
Ebene_1
 62
7
100
AcDbSpline
 70
8
 71
3
 72
8
 73
4
 74
0
 40
0
 40
0
 40
0
 40
0
 40
1
 40
1
 40
1
 40
1
 10
143.920172
 20
79.046861
 30
0.0
 10
143.199843
 20
79.717826
 30
0.0
 10
143.070221
 20
79.751625
 30
0.0
 10
142.901680
 20
79.312405
 30
0.0
  0
SPLINE
  5
204
100
AcDbEntity
  8
Ebene_1
 62
7
100
AcDbSpline
 70
8
 71
3
 72
8
 73
4
 74
0
 40
0
 40
0
 40
0
 40
0
 40
1
 40
1
 40
1
 40
1
 10
142.901680
 20
79.312405
 30
0.0
 10
142.757484
 20
78.936649
 30
0.0
 10
142.324826
 20
78.809138
 30
0.0
 10
141.194061
 20
78.809138
 30
0.0
  0
SPLINE
  5
205
100
AcDbEntity
  8
Ebene_1
 62
7
100
AcDbSpline
 70
8
 71
3
 72
8
 73
4
 74
0
 40
0
 40
0
 40
0
 40
0
 40
1
 40
1
 40
1
 40
1
 10
141.194061
 20
78.809138
 30
0.0
 10
139.891041
 20
78.809138
 30
0.0
 10
139.556666
 20
78.940710
 30
0.0
 10
138.799356
 20
79.751413
 30
0.0
  0
LWPOLYLINE
  5
206
100
AcDbEntity
  8
Ebene_1
 62
7
100
AcDbPolyline
 90
1
 70
1
 10
126.536805
 20
73.356059
 30
0.0
  0
SPLINE
  5
207
100
AcDbEntity
  8
Ebene_1
 62
7
100
AcDbSpline
 70
8
 71
3
 72
8
 73
4
 74
0
 40
0
 40
0
 40
0
 40
0
 40
1
 40
1
 40
1
 40
1
 10
137.919144
 20
86.692359
 30
0.0
 10
137.919144
 20
93.379798
 30
0.0
 10
137.953201
 20
93.493483
 30
0.0
 10
139.955118
 20
93.493483
 30
0.0
  0
SPLINE
  5
208
100
AcDbEntity
  8
Ebene_1
 62
7
100
AcDbSpline
 70
8
 71
3
 72
8
 73
4
 74
0
 40
0
 40
0
 40
0
 40
0
 40
1
 40
1
 40
1
 40
1
 10
139.955118
 20
93.493483
 30
0.0
 10
141.700521
 20
93.493483
 30
0.0
 10
141.863282
 20
92.997265
 30
0.0
 10
141.863282
 20
87.676037
 30
0.0
  0
SPLINE
  5
209
100
AcDbEntity
  8
Ebene_1
 62
7
100
AcDbSpline
 70
8
 71
3
 72
8
 73
4
 74
0
 40
0
 40
0
 40
0
 40
0
 40
1
 40
1
 40
1
 40
1
 10
141.863282
 20
87.676037
 30
0.0
 10
141.863282
 20
82.701382
 30
0.0
 10
142.045962
 20
82.213437
 30
0.0
 10
143.127865
 20
84.298213
 30
0.0
  0
SPLINE
  5
20a
100
AcDbEntity
  8
Ebene_1
 62
7
100
AcDbSpline
 70
8
 71
3
 72
8
 73
4
 74
0
 40
0
 40
0
 40
0
 40
0
 40
1
 40
1
 40
1
 40
1
 10
143.127865
 20
84.298213
 30
0.0
 10
143.849639
 20
85.689045
 30
0.0
 10
144.290450
 20
88.115144
 30
0.0
 10
144.290450
 20
90.696765
 30
0.0
  0
SPLINE
  5
20b
100
AcDbEntity
  8
Ebene_1
 62
7
100
AcDbSpline
 70
8
 71
3
 72
8
 73
4
 74
0
 40
0
 40
0
 40
0
 40
0
 40
1
 40
1
 40
1
 40
1
 10
144.290450
 20
90.696765
 30
0.0
 10
144.290450
 20
92.502345
 30
0.0
 10
144.391015
 20
92.893422
 30
0.0
 10
145.015492
 20
93.517955
 30
0.0
  0
SPLINE
  5
20c
100
AcDbEntity
  8
Ebene_1
 62
7
100
AcDbSpline
 70
8
 71
3
 72
8
 73
4
 74
0
 40
0
 40
0
 40
0
 40
0
 40
1
 40
1
 40
1
 40
1
 10
145.015492
 20
93.517955
 30
0.0
 10
145.960160
 20
94.462622
 30
0.0
 10
146.950752
 20
94.221184
 30
0.0
 10
147.497323
 20
92.913048
 30
0.0
  0
SPLINE
  5
20d
100
AcDbEntity
  8
Ebene_1
 62
7
100
AcDbSpline
 70
8
 71
3
 72
8
 73
4
 74
0
 40
0
 40
0
 40
0
 40
0
 40
1
 40
1
 40
1
 40
1
 10
147.497323
 20
92.913048
 30
0.0
 10
148.047471
 20
91.596339
 30
0.0
 10
148.185063
 20
79.546987
 30
0.0
 10
147.661116
 20
78.567991
 30
0.0
  0
SPLINE
  5
20e
100
AcDbEntity
  8
Ebene_1
 62
7
100
AcDbSpline
 70
8
 71
3
 72
8
 73
4
 74
0
 40
0
 40
0
 40
0
 40
0
 40
1
 40
1
 40
1
 40
1
 10
147.661116
 20
78.567991
 30
0.0
 10
147.308784
 20
77.909641
 30
0.0
 10
146.280970
 20
77.719348
 30
0.0
 10
145.200637
 20
78.112454
 30
0.0
  0
LWPOLYLINE
  5
20f
100
AcDbEntity
  8
Ebene_1
 62
7
100
AcDbPolyline
 90
3
 70
0
 10
138.799356
 20
79.751413
 30
0.0
 10
137.919144
 20
80.693683
 30
0.0
 10
137.919144
 20
86.692359
 30
0.0
  0
SPLINE
  5
210
100
AcDbEntity
  8
Ebene_1
 62
7
100
AcDbSpline
 70
8
 71
3
 72
8
 73
4
 74
0
 40
0
 40
0
 40
0
 40
0
 40
1
 40
1
 40
1
 40
1
 10
121.588669
 20
85.882639
 30
0.0
 10
120.765780
 20
86.758563
 30
0.0
 10
120.746321
 20
87.728331
 30
0.0
 10
121.535807
 20
88.517796
 30
0.0
  0
SPLINE
  5
211
100
AcDbEntity
  8
Ebene_1
 62
7
100
AcDbSpline
 70
8
 71
3
 72
8
 73
4
 74
0
 40
0
 40
0
 40
0
 40
0
 40
1
 40
1
 40
1
 40
1
 10
121.535807
 20
88.517796
 30
0.0
 10
122.263004
 20
89.244996
 30
0.0
 10
123.436173
 20
89.304650
 30
0.0
 10
124.092998
 20
88.647823
 30
0.0
  0
SPLINE
  5
212
100
AcDbEntity
  8
Ebene_1
 62
7
100
AcDbSpline
 70
8
 71
3
 72
8
 73
4
 74
0
 40
0
 40
0
 40
0
 40
0
 40
1
 40
1
 40
1
 40
1
 10
124.092998
 20
88.647823
 30
0.0
 10
124.818143
 20
87.922671
 30
0.0
 10
124.705882
 20
86.220379
 30
0.0
 10
123.895458
 20
85.652741
 30
0.0
  0
SPLINE
  5
213
100
AcDbEntity
  8
Ebene_1
 62
7
100
AcDbSpline
 70
8
 71
3
 72
8
 73
4
 74
0
 40
0
 40
0
 40
0
 40
0
 40
1
 40
1
 40
1
 40
1
 10
123.895458
 20
85.652741
 30
0.0
 10
122.964344
 20
85.000562
 30
0.0
 10
122.360851
 20
85.060707
 30
0.0
 10
121.588692
 20
85.882639
 30
0.0
  0
LWPOLYLINE
  5
214
100
AcDbEntity
  8
Ebene_1
 62
7
100
AcDbPolyline
 90
1
 70
1
 10
145.200637
 20
78.112454
 30
0.0
  0
SPLINE
  5
215
100
AcDbEntity
  8
Ebene_1
 62
7
100
AcDbSpline
 70
8
 71
3
 72
8
 73
4
 74
0
 40
0
 40
0
 40
0
 40
0
 40
1
 40
1
 40
1
 40
1
 10
104.014689
 20
26.219245
 30
0.0
 10
103.806105
 20
26.303412
 30
0.0
 10
103.464781
 20
26.303412
 30
0.0
 10
103.256198
 20
26.219245
 30
0.0
  0
SPLINE
  5
216
100
AcDbEntity
  8
Ebene_1
 62
7
100
AcDbSpline
 70
8
 71
3
 72
8
 73
4
 74
0
 40
0
 40
0
 40
0
 40
0
 40
1
 40
1
 40
1
 40
1
 10
103.256198
 20
26.219245
 30
0.0
 10
103.047615
 20
26.135078
 30
0.0
 10
103.218242
 20
26.066219
 30
0.0
 10
103.635443
 20
26.066219
 30
0.0
  0
SPLINE
  5
217
100
AcDbEntity
  8
Ebene_1
 62
7
100
AcDbSpline
 70
8
 71
3
 72
8
 73
4
 74
0
 40
0
 40
0
 40
0
 40
0
 40
1
 40
1
 40
1
 40
1
 10
103.635443
 20
26.066219
 30
0.0
 10
104.052610
 20
26.066219
 30
0.0
 10
104.223272
 20
26.135135
 30
0.0
 10
104.014689
 20
26.219245
 30
0.0
  0
LWPOLYLINE
  5
218
100
AcDbEntity
  8
Ebene_1
 62
7
100
AcDbPolyline
 90
1
 70
1
 10
121.588692
 20
85.882639
 30
0.0
  0
LWPOLYLINE
  5
219
100
AcDbEntity
  8
Ebene_1
 62
7
100
AcDbPolyline
 90
1
 70
1
 10
104.014689
 20
26.219245
 30
0.0
  0
SPLINE
  5
21a
100
AcDbEntity
  8
Ebene_1
 62
7
100
AcDbSpline
 70
8
 71
3
 72
8
 73
4
 74
0
 40
0
 40
0
 40
0
 40
0
 40
1
 40
1
 40
1
 40
1
 10
116.548259
 20
28.567016
 30
0.0
 10
115.837815
 20
33.072231
 30
0.0
 10
111.280495
 20
36.946880
 30
0.0
 10
104.740705
 20
38.605833
 30
0.0
  0
SPLINE
  5
21b
100
AcDbEntity
  8
Ebene_1
 62
7
100
AcDbSpline
 70
8
 71
3
 72
8
 73
4
 74
0
 40
0
 40
0
 40
0
 40
0
 40
1
 40
1
 40
1
 40
1
 10
104.740705
 20
38.605833
 30
0.0
 10
95.336124
 20
40.991502
 30
0.0
 10
84.729213
 20
38.854344
 30
0.0
 10
79.857355
 20
33.592164
 30
0.0
  0
SPLINE
  5
21c
100
AcDbEntity
  8
Ebene_1
 62
7
100
AcDbSpline
 70
8
 71
3
 72
8
 73
4
 74
0
 40
0
 40
0
 40
0
 40
0
 40
1
 40
1
 40
1
 40
1
 10
79.857355
 20
33.592164
 30
0.0
 10
78.334916
 20
31.947739
 30
0.0
 10
77.240031
 20
29.789688
 30
0.0
 10
77.240031
 20
28.433335
 30
0.0
  0
SPLINE
  5
21d
100
AcDbEntity
  8
Ebene_1
 62
7
100
AcDbSpline
 70
8
 71
3
 72
8
 73
4
 74
0
 40
0
 40
0
 40
0
 40
0
 40
1
 40
1
 40
1
 40
1
 10
77.240031
 20
28.433335
 30
0.0
 10
77.240031
 20
27.838821
 30
0.0
 10
78.586500
 20
27.654812
 30
0.0
 10
85.128319
 20
27.355353
 30
0.0
  0
SPLINE
  5
21e
100
AcDbEntity
  8
Ebene_1
 62
7
100
AcDbSpline
 70
8
 71
3
 72
8
 73
4
 74
0
 40
0
 40
0
 40
0
 40
0
 40
1
 40
1
 40
1
 40
1
 10
85.128319
 20
27.355353
 30
0.0
 10
87.381030
 20
27.252266
 30
0.0
 10
90.589439
 20
27.062041
 30
0.0
 10
92.258116
 20
26.932705
 30
0.0
  0
SPLINE
  5
21f
100
AcDbEntity
  8
Ebene_1
 62
7
100
AcDbSpline
 70
8
 71
3
 72
8
 73
4
 74
0
 40
0
 40
0
 40
0
 40
0
 40
1
 40
1
 40
1
 40
1
 10
92.258116
 20
26.932705
 30
0.0
 10
95.809180
 20
26.657476
 30
0.0
 10
112.382213
 20
26.781549
 30
0.0
 10
114.968393
 20
27.102725
 30
0.0
  0
LWPOLYLINE
  5
220
100
AcDbEntity
  8
Ebene_1
 62
7
100
AcDbPolyline
 90
3
 70
0
 10
114.968393
 20
27.102725
 30
0.0
 10
116.744389
 20
27.323280
 30
0.0
 10
116.548259
 20
28.567016
 30
0.0
  0
SPLINE
  5
221
100
AcDbEntity
  8
Ebene_1
 62
7
100
AcDbSpline
 70
8
 71
3
 72
8
 73
4
 74
0
 40
0
 40
0
 40
0
 40
0
 40
1
 40
1
 40
1
 40
1
 10
186.327014
 20
28.153118
 30
0.0
 10
187.837780
 20
28.170318
 30
0.0
 10
189.251055
 20
28.293852
 30
0.0
 10
189.467630
 20
28.427705
 30
0.0
  0
SPLINE
  5
222
100
AcDbEntity
  8
Ebene_1
 62
7
100
AcDbSpline
 70
8
 71
3
 72
8
 73
4
 74
0
 40
0
 40
0
 40
0
 40
0
 40
1
 40
1
 40
1
 40
1
 10
189.467630
 20
28.427705
 30
0.0
 10
189.684206
 20
28.561558
 30
0.0
 10
190.297273
 20
28.572773
 30
0.0
 10
190.830003
 20
28.452588
 30
0.0
  0
SPLINE
  5
223
100
AcDbEntity
  8
Ebene_1
 62
7
100
AcDbSpline
 70
8
 71
3
 72
8
 73
4
 74
0
 40
0
 40
0
 40
0
 40
0
 40
1
 40
1
 40
1
 40
1
 10
190.830003
 20
28.452588
 30
0.0
 10
191.362733
 20
28.332438
 30
0.0
 10
192.072524
 20
28.335465
 30
0.0
 10
192.407312
 20
28.459468
 30
0.0
  0
SPLINE
  5
224
100
AcDbEntity
  8
Ebene_1
 62
7
100
AcDbSpline
 70
8
 71
3
 72
8
 73
4
 74
0
 40
0
 40
0
 40
0
 40
0
 40
1
 40
1
 40
1
 40
1
 10
192.407312
 20
28.459468
 30
0.0
 10
192.742101
 20
28.583311
 30
0.0
 10
195.739702
 20
28.780473
 30
0.0
 10
199.068640
 20
28.897608
 30
0.0
  0
SPLINE
  5
225
100
AcDbEntity
  8
Ebene_1
 62
7
100
AcDbSpline
 70
8
 71
3
 72
8
 73
4
 74
0
 40
0
 40
0
 40
0
 40
0
 40
1
 40
1
 40
1
 40
1
 10
199.068640
 20
28.897608
 30
0.0
 10
205.076514
 20
29.109000
 30
0.0
 10
206.756865
 20
29.221583
 30
0.0
 10
206.961744
 20
29.426462
 30
0.0
  0
SPLINE
  5
226
100
AcDbEntity
  8
Ebene_1
 62
7
100
AcDbSpline
 70
8
 71
3
 72
8
 73
4
 74
0
 40
0
 40
0
 40
0
 40
0
 40
1
 40
1
 40
1
 40
1
 10
206.961744
 20
29.426462
 30
0.0
 10
207.020340
 20
29.485058
 30
0.0
 10
206.737531
 20
30.247103
 30
0.0
 10
206.333208
 20
31.119805
 30
0.0
  0
SPLINE
  5
227
100
AcDbEntity
  8
Ebene_1
 62
7
100
AcDbSpline
 70
8
 71
3
 72
8
 73
4
 74
0
 40
0
 40
0
 40
0
 40
0
 40
1
 40
1
 40
1
 40
1
 10
206.333208
 20
31.119805
 30
0.0
 10
203.659306
 20
36.891127
 30
0.0
 10
193.705895
 20
40.550336
 30
0.0
 10
183.883574
 20
39.373039
 30
0.0
  0
SPLINE
  5
228
100
AcDbEntity
  8
Ebene_1
 62
7
100
AcDbSpline
 70
8
 71
3
 72
8
 73
4
 74
0
 40
0
 40
0
 40
0
 40
0
 40
1
 40
1
 40
1
 40
1
 10
183.883574
 20
39.373039
 30
0.0
 10
177.881846
 20
38.653673
 30
0.0
 10
173.243122
 20
36.591073
 30
0.0
 10
170.328003
 20
33.345545
 30
0.0
  0
SPLINE
  5
229
100
AcDbEntity
  8
Ebene_1
 62
7
100
AcDbSpline
 70
8
 71
3
 72
8
 73
4
 74
0
 40
0
 40
0
 40
0
 40
0
 40
1
 40
1
 40
1
 40
1
 10
170.328003
 20
33.345545
 30
0.0
 10
169.083509
 20
31.959997
 30
0.0
 10
167.633449
 20
28.969723
 30
0.0
 10
168.019070
 20
28.584102
 30
0.0
  0
SPLINE
  5
22a
100
AcDbEntity
  8
Ebene_1
 62
7
100
AcDbSpline
 70
8
 71
3
 72
8
 73
4
 74
0
 40
0
 40
0
 40
0
 40
0
 40
1
 40
1
 40
1
 40
1
 10
168.019070
 20
28.584102
 30
0.0
 10
168.088101
 20
28.515071
 30
0.0
 10
169.842780
 20
28.373168
 30
0.0
 10
171.918269
 20
28.268854
 30
0.0
  0
SPLINE
  5
22b
100
AcDbEntity
  8
Ebene_1
 62
7
100
AcDbSpline
 70
8
 71
3
 72
8
 73
4
 74
0
 40
0
 40
0
 40
0
 40
0
 40
1
 40
1
 40
1
 40
1
 10
171.918269
 20
28.268854
 30
0.0
 10
173.993758
 20
28.164505
 30
0.0
 10
175.730159
 20
28.043724
 30
0.0
 10
175.776921
 20
28.000379
 30
0.0
  0
SPLINE
  5
22c
100
AcDbEntity
  8
Ebene_1
 62
7
100
AcDbSpline
 70
8
 71
3
 72
8
 73
4
 74
0
 40
0
 40
0
 40
0
 40
0
 40
1
 40
1
 40
1
 40
1
 10
175.776921
 20
28.000379
 30
0.0
 10
175.823707
 20
27.957034
 30
0.0
 10
177.598556
 20
27.966666
 30
0.0
 10
179.721071
 20
28.021822
 30
0.0
  0
SPLINE
  5
22d
100
AcDbEntity
  8
Ebene_1
 62
7
100
AcDbSpline
 70
8
 71
3
 72
8
 73
4
 74
0
 40
0
 40
0
 40
0
 40
0
 40
1
 40
1
 40
1
 40
1
 10
179.721071
 20
28.021822
 30
0.0
 10
181.843575
 20
28.076978
 30
0.0
 10
184.816259
 20
28.136147
 30
0.0
 10
186.327014
 20
28.153279
 30
0.0
  0
LWPOLYLINE
  5
22e
100
AcDbEntity
  8
Ebene_1
 62
7
100
AcDbPolyline
 90
1
 70
1
 10
114.968393
 20
27.102725
 30
0.0
  0
SPLINE
  5
22f
100
AcDbEntity
  8
Ebene_1
 62
7
100
AcDbSpline
 70
8
 71
3
 72
8
 73
4
 74
0
 40
0
 40
0
 40
0
 40
0
 40
1
 40
1
 40
1
 40
1
 10
239.102139
 20
41.207115
 30
0.0
 10
239.225099
 20
45.222394
 30
0.0
 10
239.224927
 20
54.083649
 30
0.0
 10
239.101841
 20
60.898780
 30
0.0
  0
LWPOLYLINE
  5
230
100
AcDbEntity
  8
Ebene_1
 62
7
100
AcDbPolyline
 90
2
 70
0
 10
186.327014
 20
28.153279
 30
0.0
 10
186.327014
 20
28.153118
 30
0.0
  0
SPLINE
  5
231
100
AcDbEntity
  8
Ebene_1
 62
7
100
AcDbSpline
 70
8
 71
3
 72
8
 73
4
 74
0
 40
0
 40
0
 40
0
 40
0
 40
1
 40
1
 40
1
 40
1
 10
237.472793
 20
73.495745
 30
0.0
 10
234.280518
 20
73.963345
 30
0.0
 10
231.733440
 20
75.817938
 30
0.0
 10
230.320521
 20
78.703490
 30
0.0
  0
SPLINE
  5
232
100
AcDbEntity
  8
Ebene_1
 62
7
100
AcDbSpline
 70
8
 71
3
 72
8
 73
4
 74
0
 40
0
 40
0
 40
0
 40
0
 40
1
 40
1
 40
1
 40
1
 10
230.320521
 20
78.703490
 30
0.0
 10
229.325445
 20
80.735692
 30
0.0
 10
228.999670
 20
83.475718
 30
0.0
 10
229.523134
 20
85.410155
 30
0.0
  0
SPLINE
  5
233
100
AcDbEntity
  8
Ebene_1
 62
7
100
AcDbSpline
 70
8
 71
3
 72
8
 73
4
 74
0
 40
0
 40
0
 40
0
 40
0
 40
1
 40
1
 40
1
 40
1
 10
229.523134
 20
85.410155
 30
0.0
 10
230.181473
 20
87.842980
 30
0.0
 10
233.287185
 20
90.012317
 30
0.0
 10
237.064296
 20
90.677642
 30
0.0
  0
LWPOLYLINE
  5
234
100
AcDbEntity
  8
Ebene_1
 62
7
100
AcDbPolyline
 90
3
 70
0
 10
239.101841
 20
60.898780
 30
0.0
 10
238.877881
 20
73.289931
 30
0.0
 10
237.472793
 20
73.495745
 30
0.0
  0
SPLINE
  5
235
100
AcDbEntity
  8
Ebene_1
 62
7
100
AcDbSpline
 70
8
 71
3
 72
8
 73
4
 74
0
 40
0
 40
0
 40
0
 40
0
 40
1
 40
1
 40
1
 40
1
 10
238.949858
 20
100.079245
 30
0.0
 10
238.949858
 20
105.067441
 30
0.0
 10
238.892753
 20
109.148694
 30
0.0
 10
238.822897
 20
109.148694
 30
0.0
  0
SPLINE
  5
236
100
AcDbEntity
  8
Ebene_1
 62
7
100
AcDbSpline
 70
8
 71
3
 72
8
 73
4
 74
0
 40
0
 40
0
 40
0
 40
0
 40
1
 40
1
 40
1
 40
1
 10
238.822897
 20
109.148694
 30
0.0
 10
238.753063
 20
109.148694
 30
0.0
 10
238.399882
 20
108.259047
 30
0.0
 10
238.038043
 20
107.171699
 30
0.0
  0
SPLINE
  5
237
100
AcDbEntity
  8
Ebene_1
 62
7
100
AcDbSpline
 70
8
 71
3
 72
8
 73
4
 74
0
 40
0
 40
0
 40
0
 40
0
 40
1
 40
1
 40
1
 40
1
 10
238.038043
 20
107.171699
 30
0.0
 10
237.221920
 20
104.719267
 30
0.0
 10
235.304468
 20
101.797926
 30
0.0
 10
233.969271
 20
100.972730
 30
0.0
  0
SPLINE
  5
238
100
AcDbEntity
  8
Ebene_1
 62
7
100
AcDbSpline
 70
8
 71
3
 72
8
 73
4
 74
0
 40
0
 40
0
 40
0
 40
0
 40
1
 40
1
 40
1
 40
1
 10
233.969271
 20
100.972730
 30
0.0
 10
232.618491
 20
100.137904
 30
0.0
 10
230.645895
 20
100.166046
 30
0.0
 10
229.098939
 20
101.042208
 30
0.0
  0
SPLINE
  5
239
100
AcDbEntity
  8
Ebene_1
 62
7
100
AcDbSpline
 70
8
 71
3
 72
8
 73
4
 74
0
 40
0
 40
0
 40
0
 40
0
 40
1
 40
1
 40
1
 40
1
 10
229.098939
 20
101.042208
 30
0.0
 10
227.651493
 20
101.862016
 30
0.0
 10
225.828872
 20
104.187509
 30
0.0
 10
225.140754
 20
106.092475
 30
0.0
  0
SPLINE
  5
23a
100
AcDbEntity
  8
Ebene_1
 62
7
100
AcDbSpline
 70
8
 71
3
 72
8
 73
4
 74
0
 40
0
 40
0
 40
0
 40
0
 40
1
 40
1
 40
1
 40
1
 10
225.140754
 20
106.092475
 30
0.0
 10
224.865077
 20
106.855621
 30
0.0
 10
224.549714
 20
107.684804
 30
0.0
 10
224.439930
 20
107.935105
 30
0.0
  0
SPLINE
  5
23b
100
AcDbEntity
  8
Ebene_1
 62
7
100
AcDbSpline
 70
8
 71
3
 72
8
 73
4
 74
0
 40
0
 40
0
 40
0
 40
0
 40
1
 40
1
 40
1
 40
1
 10
224.439930
 20
107.935105
 30
0.0
 10
224.189470
 20
108.506126
 30
0.0
 10
223.815063
 20
46.601909
 30
0.0
 10
224.024759
 20
39.291864
 30
0.0
  0
LWPOLYLINE
  5
23c
100
AcDbEntity
  8
Ebene_1
 62
7
100
AcDbPolyline
 90
3
 70
0
 10
237.064296
 20
90.677642
 30
0.0
 10
238.949858
 20
91.009796
 30
0.0
 10
238.949858
 20
100.079245
 30
0.0
  0
SPLINE
  5
23d
100
AcDbEntity
  8
Ebene_1
 62
7
100
AcDbSpline
 70
8
 71
3
 72
8
 73
4
 74
0
 40
0
 40
0
 40
0
 40
0
 40
1
 40
1
 40
1
 40
1
 10
53.751770
 20
88.261200
 30
0.0
 10
51.553814
 20
89.420137
 30
0.0
 10
47.626326
 20
89.302866
 30
0.0
 10
46.584201
 20
88.047184
 30
0.0
  0
SPLINE
  5
23e
100
AcDbEntity
  8
Ebene_1
 62
7
100
AcDbSpline
 70
8
 71
3
 72
8
 73
4
 74
0
 40
0
 40
0
 40
0
 40
0
 40
1
 40
1
 40
1
 40
1
 10
46.584201
 20
88.047184
 30
0.0
 10
46.268448
 20
87.666720
 30
0.0
 10
46.805753
 20
87.609412
 30
0.0
 10
50.579929
 20
87.621020
 30
0.0
  0
LWPOLYLINE
  5
23f
100
AcDbEntity
  8
Ebene_1
 62
7
100
AcDbPolyline
 90
5
 70
0
 10
224.024759
 20
39.291864
 30
0.0
 10
224.179241
 20
33.906598
 30
0.0
 10
231.528916
 20
33.906598
 30
0.0
 10
238.878580
 20
33.906598
 30
0.0
 10
239.102139
 20
41.207115
 30
0.0
  0
LWPOLYLINE
  5
240
100
AcDbEntity
  8
Ebene_1
 62
7
100
AcDbPolyline
 90
3
 70
0
 10
50.579929
 20
87.621020
 30
0.0
 10
54.940453
 20
87.634425
 30
0.0
 10
53.751770
 20
88.261200
 30
0.0
  0
SPLINE
  5
241
100
AcDbEntity
  8
Ebene_1
 62
7
100
AcDbSpline
 70
8
 71
3
 72
8
 73
4
 74
0
 40
0
 40
0
 40
0
 40
0
 40
1
 40
1
 40
1
 40
1
 10
226.022755
 20
116.885280
 30
0.0
 10
231.434085
 20
124.436513
 30
0.0
 10
236.485377
 20
133.806590
 30
0.0
 10
238.616607
 20
140.246737
 30
0.0
  0
SPLINE
  5
242
100
AcDbEntity
  8
Ebene_1
 62
7
100
AcDbSpline
 70
8
 71
3
 72
8
 73
4
 74
0
 40
0
 40
0
 40
0
 40
0
 40
1
 40
1
 40
1
 40
1
 10
238.616607
 20
140.246737
 30
0.0
 10
240.051210
 20
144.581817
 30
0.0
 10
240.942522
 20
150.107092
 30
0.0
 10
240.207240
 20
150.107092
 30
0.0
  0
SPLINE
  5
243
100
AcDbEntity
  8
Ebene_1
 62
7
100
AcDbSpline
 70
8
 71
3
 72
8
 73
4
 74
0
 40
0
 40
0
 40
0
 40
0
 40
1
 40
1
 40
1
 40
1
 10
240.207240
 20
150.107092
 30
0.0
 10
240.064454
 20
150.107092
 30
0.0
 10
239.871627
 20
149.102028
 30
0.0
 10
239.778710
 20
147.873610
 30
0.0
  0
SPLINE
  5
244
100
AcDbEntity
  8
Ebene_1
 62
7
100
AcDbSpline
 70
8
 71
3
 72
8
 73
4
 74
0
 40
0
 40
0
 40
0
 40
0
 40
1
 40
1
 40
1
 40
1
 10
239.778710
 20
147.873610
 30
0.0
 10
239.323726
 20
141.857628
 30
0.0
 10
233.551119
 20
130.146523
 30
0.0
 10
225.896355
 20
119.709932
 30
0.0
  0
SPLINE
  5
245
100
AcDbEntity
  8
Ebene_1
 62
7
100
AcDbSpline
 70
8
 71
3
 72
8
 73
4
 74
0
 40
0
 40
0
 40
0
 40
0
 40
1
 40
1
 40
1
 40
1
 10
225.896355
 20
119.709932
 30
0.0
 10
223.153732
 20
115.970612
 30
0.0
 10
222.768913
 20
115.322065
 30
0.0
 10
223.036196
 20
114.889589
 30
0.0
  0
SPLINE
  5
246
100
AcDbEntity
  8
Ebene_1
 62
7
100
AcDbSpline
 70
8
 71
3
 72
8
 73
4
 74
0
 40
0
 40
0
 40
0
 40
0
 40
1
 40
1
 40
1
 40
1
 10
223.036196
 20
114.889589
 30
0.0
 10
223.498290
 20
114.141898
 30
0.0
 10
224.569999
 20
114.858044
 30
0.0
 10
226.022755
 20
116.885280
 30
0.0
  0
LWPOLYLINE
  5
247
100
AcDbEntity
  8
Ebene_1
 62
7
100
AcDbPolyline
 90
8
 70
1
 10
59.643094
 20
118.705654
 30
0.0
 10
59.643094
 20
130.082986
 30
0.0
 10
56.912534
 20
130.082986
 30
0.0
 10
54.181974
 20
130.082986
 30
0.0
 10
54.181974
 20
118.705654
 30
0.0
 10
54.181974
 20
107.328320
 30
0.0
 10
56.912534
 20
107.328320
 30
0.0
 10
59.643094
 20
107.328320
 30
0.0
  0
SPLINE
  5
248
100
AcDbEntity
  8
Ebene_1
 62
7
100
AcDbSpline
 70
8
 71
3
 72
8
 73
4
 74
0
 40
0
 40
0
 40
0
 40
0
 40
1
 40
1
 40
1
 40
1
 10
156.460634
 20
122.316072
 30
0.0
 10
156.942337
 20
122.966862
 30
0.0
 10
157.336455
 20
123.808026
 30
0.0
 10
157.336455
 20
124.185323
 30
0.0
  0
SPLINE
  5
249
100
AcDbEntity
  8
Ebene_1
 62
7
100
AcDbSpline
 70
8
 71
3
 72
8
 73
4
 74
0
 40
0
 40
0
 40
0
 40
0
 40
1
 40
1
 40
1
 40
1
 10
157.336455
 20
124.185323
 30
0.0
 10
157.336455
 20
125.265823
 30
0.0
 10
155.744250
 20
126.340690
 30
0.0
 10
152.699428
 20
127.315689
 30
0.0
  0
SPLINE
  5
24a
100
AcDbEntity
  8
Ebene_1
 62
7
100
AcDbSpline
 70
8
 71
3
 72
8
 73
4
 74
0
 40
0
 40
0
 40
0
 40
0
 40
1
 40
1
 40
1
 40
1
 10
152.699428
 20
127.315689
 30
0.0
 10
148.596725
 20
128.629434
 30
0.0
 10
145.271285
 20
129.172800
 30
0.0
 10
141.333809
 20
129.172800
 30
0.0
  0
SPLINE
  5
24b
100
AcDbEntity
  8
Ebene_1
 62
7
100
AcDbSpline
 70
8
 71
3
 72
8
 73
4
 74
0
 40
0
 40
0
 40
0
 40
0
 40
1
 40
1
 40
1
 40
1
 10
141.333809
 20
129.172800
 30
0.0
 10
138.042035
 20
129.172800
 30
0.0
 10
127.904728
 20
126.606658
 30
0.0
 10
127.845490
 20
126.212048
 30
0.0
  0
SPLINE
  5
24c
100
AcDbEntity
  8
Ebene_1
 62
7
100
AcDbSpline
 70
8
 71
3
 72
8
 73
4
 74
0
 40
0
 40
0
 40
0
 40
0
 40
1
 40
1
 40
1
 40
1
 10
127.845490
 20
126.212048
 30
0.0
 10
127.232537
 20
122.128663
 30
0.0
 10
135.800388
 20
112.297716
 30
0.0
 10
138.786976
 20
108.328735
 30
0.0
  0
LWPOLYLINE
  5
24d
100
AcDbEntity
  8
Ebene_1
 62
7
100
AcDbPolyline
 90
1
 70
1
 10
226.022755
 20
116.885280
 30
0.0
  0
SPLINE
  5
24e
100
AcDbEntity
  8
Ebene_1
 62
7
100
AcDbSpline
 70
8
 71
3
 72
8
 73
4
 74
0
 40
0
 40
0
 40
0
 40
0
 40
1
 40
1
 40
1
 40
1
 10
153.805917
 20
119.402544
 30
0.0
 10
154.784309
 20
120.354195
 30
0.0
 10
155.978932
 20
121.665283
 30
0.0
 10
156.460634
 20
122.316072
 30
0.0
  0
LWPOLYLINE
  5
24f
100
AcDbEntity
  8
Ebene_1
 62
7
100
AcDbPolyline
 90
3
 70
0
 10
138.786976
 20
108.328735
 30
0.0
 10
152.027042
 20
117.672273
 30
0.0
 10
153.805917
 20
119.402544
 30
0.0
  0
SPLINE
  5
250
100
AcDbEntity
  8
Ebene_1
 62
7
100
AcDbSpline
 70
8
 71
3
 72
8
 73
4
 74
0
 40
0
 40
0
 40
0
 40
0
 40
1
 40
1
 40
1
 40
1
 10
122.749763
 20
122.193950
 30
0.0
 10
123.728430
 20
127.475144
 30
0.0
 10
124.573061
 20
128.486043
 30
0.0
 10
126.403961
 20
130.720641
 30
0.0
  0
SPLINE
  5
251
100
AcDbEntity
  8
Ebene_1
 62
7
100
AcDbSpline
 70
8
 71
3
 72
8
 73
4
 74
0
 40
0
 40
0
 40
0
 40
0
 40
1
 40
1
 40
1
 40
1
 10
126.403961
 20
130.720641
 30
0.0
 10
145.323008
 20
128.400078
 30
0.0
 10
139.943607
 20
152.679810
 30
0.0
 10
136.902533
 20
158.105496
 30
0.0
  0
SPLINE
  5
252
100
AcDbEntity
  8
Ebene_1
 62
7
100
AcDbSpline
 70
8
 71
3
 72
8
 73
4
 74
0
 40
0
 40
0
 40
0
 40
0
 40
1
 40
1
 40
1
 40
1
 10
136.902533
 20
158.105496
 30
0.0
 10
133.335495
 20
164.446266
 30
0.0
 10
126.605985
 20
168.090029
 30
0.0
 10
120.269974
 20
167.111350
 30
0.0
  0
SPLINE
  5
253
100
AcDbEntity
  8
Ebene_1
 62
7
100
AcDbSpline
 70
8
 71
3
 72
8
 73
4
 74
0
 40
0
 40
0
 40
0
 40
0
 40
1
 40
1
 40
1
 40
1
 10
120.269974
 20
167.111350
 30
0.0
 10
118.130465
 20
166.780874
 30
0.0
 10
114.272615
 20
165.271655
 30
0.0
 10
113.650133
 20
164.521616
 30
0.0
  0
SPLINE
  5
254
100
AcDbEntity
  8
Ebene_1
 62
7
100
AcDbSpline
 70
8
 71
3
 72
8
 73
4
 74
0
 40
0
 40
0
 40
0
 40
0
 40
1
 40
1
 40
1
 40
1
 10
113.650133
 20
164.521616
 30
0.0
 10
102.279583
 20
155.836721
 30
0.0
 10
102.444053
 20
143.443969
 30
0.0
 10
105.996057
 20
134.338118
 30
0.0
  0
SPLINE
  5
255
100
AcDbEntity
  8
Ebene_1
 62
7
100
AcDbSpline
 70
8
 71
3
 72
8
 73
4
 74
0
 40
0
 40
0
 40
0
 40
0
 40
1
 40
1
 40
1
 40
1
 10
105.996057
 20
134.338118
 30
0.0
 10
108.664065
 20
127.527961
 30
0.0
 10
113.998877
 20
122.793556
 30
0.0
 10
119.999916
 20
121.910332
 30
0.0
  0
SPLINE
  5
256
100
AcDbEntity
  8
Ebene_1
 62
7
100
AcDbSpline
 70
8
 71
3
 72
8
 73
4
 74
0
 40
0
 40
0
 40
0
 40
0
 40
1
 40
1
 40
1
 40
1
 10
119.999916
 20
121.910332
 30
0.0
 10
122.925689
 20
121.479719
 30
0.0
 10
123.121246
 20
121.499839
 30
0.0
 10
122.749763
 20
122.193950
 30
0.0
  0
LWPOLYLINE
  5
257
100
AcDbEntity
  8
Ebene_1
 62
7
100
AcDbPolyline
 90
1
 70
1
 10
156.460634
 20
122.316072
 30
0.0
  0
SPLINE
  5
258
100
AcDbEntity
  8
Ebene_1
 62
7
100
AcDbSpline
 70
8
 71
3
 72
8
 73
4
 74
0
 40
0
 40
0
 40
0
 40
0
 40
1
 40
1
 40
1
 40
1
 10
166.048216
 20
127.888988
 30
0.0
 10
167.085170
 20
128.222635
 30
0.0
 10
168.559345
 20
128.862341
 30
0.0
 10
169.324166
 20
129.310553
 30
0.0
  0
SPLINE
  5
259
100
AcDbEntity
  8
Ebene_1
 62
7
100
AcDbSpline
 70
8
 71
3
 72
8
 73
4
 74
0
 40
0
 40
0
 40
0
 40
0
 40
1
 40
1
 40
1
 40
1
 10
169.324166
 20
129.310553
 30
0.0
 10
180.644548
 20
134.297497
 30
0.0
 10
183.664494
 20
147.674803
 30
0.0
 10
172.298833
 20
154.296588
 30
0.0
  0
SPLINE
  5
25a
100
AcDbEntity
  8
Ebene_1
 62
7
100
AcDbSpline
 70
8
 71
3
 72
8
 73
4
 74
0
 40
0
 40
0
 40
0
 40
0
 40
1
 40
1
 40
1
 40
1
 10
172.298833
 20
154.296588
 30
0.0
 10
169.443869
 20
156.850591
 30
0.0
 10
164.474267
 20
158.602163
 30
0.0
 10
160.082976
 20
158.602163
 30
0.0
  0
SPLINE
  5
25b
100
AcDbEntity
  8
Ebene_1
 62
7
100
AcDbSpline
 70
8
 71
3
 72
8
 73
4
 74
0
 40
0
 40
0
 40
0
 40
0
 40
1
 40
1
 40
1
 40
1
 10
160.082976
 20
158.602163
 30
0.0
 10
139.604797
 20
157.742970
 30
0.0
 10
142.334139
 20
139.371958
 30
0.0
 10
147.021010
 20
132.605696
 30
0.0
  0
SPLINE
  5
25c
100
AcDbEntity
  8
Ebene_1
 62
7
100
AcDbSpline
 70
8
 71
3
 72
8
 73
4
 74
0
 40
0
 40
0
 40
0
 40
0
 40
1
 40
1
 40
1
 40
1
 10
147.021010
 20
132.605696
 30
0.0
 10
147.021010
 20
131.868621
 30
0.0
 10
149.095972
 20
130.684228
 30
0.0
 10
151.718903
 20
129.924130
 30
0.0
  0
SPLINE
  5
25d
100
AcDbEntity
  8
Ebene_1
 62
7
100
AcDbSpline
 70
8
 71
3
 72
8
 73
4
 74
0
 40
0
 40
0
 40
0
 40
0
 40
1
 40
1
 40
1
 40
1
 10
151.718903
 20
129.924130
 30
0.0
 10
154.941761
 20
128.990186
 30
0.0
 10
157.180183
 20
128.057969
 30
0.0
 10
157.697961
 20
127.434090
 30
0.0
  0
SPLINE
  5
25e
100
AcDbEntity
  8
Ebene_1
 62
7
100
AcDbSpline
 70
8
 71
3
 72
8
 73
4
 74
0
 40
0
 40
0
 40
0
 40
0
 40
1
 40
1
 40
1
 40
1
 10
157.697961
 20
127.434090
 30
0.0
 10
158.237582
 20
126.783886
 30
0.0
 10
163.505611
 20
127.070860
 30
0.0
 10
166.048216
 20
127.888966
 30
0.0
  0
LWPOLYLINE
  5
25f
100
AcDbEntity
  8
Ebene_1
 62
7
100
AcDbPolyline
 90
1
 70
1
 10
122.749763
 20
122.193950
 30
0.0
  0
SPLINE
  5
260
100
AcDbEntity
  8
Ebene_1
 62
7
100
AcDbSpline
 70
8
 71
3
 72
8
 73
4
 74
0
 40
0
 40
0
 40
0
 40
0
 40
1
 40
1
 40
1
 40
1
 10
12.446601
 20
129.526094
 30
0.0
 10
13.077144
 20
135.099295
 30
0.0
 10
16.198978
 20
141.281629
 30
0.0
 10
20.634772
 20
145.741503
 30
0.0
  0
SPLINE
  5
261
100
AcDbEntity
  8
Ebene_1
 62
7
100
AcDbSpline
 70
8
 71
3
 72
8
 73
4
 74
0
 40
0
 40
0
 40
0
 40
0
 40
1
 40
1
 40
1
 40
1
 10
20.634772
 20
145.741503
 30
0.0
 10
24.823373
 20
149.952850
 30
0.0
 10
29.971377
 20
152.671702
 30
0.0
 10
36.656327
 20
154.203041
 30
0.0
  0
SPLINE
  5
262
100
AcDbEntity
  8
Ebene_1
 62
7
100
AcDbSpline
 70
8
 71
3
 72
8
 73
4
 74
0
 40
0
 40
0
 40
0
 40
0
 40
1
 40
1
 40
1
 40
1
 10
36.656327
 20
154.203041
 30
0.0
 10
40.626174
 20
155.112436
 30
0.0
 10
41.830590
 20
155.788376
 30
0.0
 10
41.683664
 20
157.024499
 30
0.0
  0
SPLINE
  5
263
100
AcDbEntity
  8
Ebene_1
 62
7
100
AcDbSpline
 70
8
 71
3
 72
8
 73
4
 74
0
 40
0
 40
0
 40
0
 40
0
 40
1
 40
1
 40
1
 40
1
 10
41.683664
 20
157.024499
 30
0.0
 10
41.556416
 20
158.094993
 30
0.0
 10
40.409174
 20
158.375187
 30
0.0
 10
37.076188
 20
158.149793
 30
0.0
  0
SPLINE
  5
264
100
AcDbEntity
  8
Ebene_1
 62
7
100
AcDbSpline
 70
8
 71
3
 72
8
 73
4
 74
0
 40
0
 40
0
 40
0
 40
0
 40
1
 40
1
 40
1
 40
1
 10
37.076188
 20
158.149793
 30
0.0
 10
33.050898
 20
157.877569
 30
0.0
 10
29.824876
 20
157.175071
 30
0.0
 10
26.431689
 20
155.831836
 30
0.0
  0
SPLINE
  5
265
100
AcDbEntity
  8
Ebene_1
 62
7
100
AcDbSpline
 70
8
 71
3
 72
8
 73
4
 74
0
 40
0
 40
0
 40
0
 40
0
 40
1
 40
1
 40
1
 40
1
 10
26.431689
 20
155.831836
 30
0.0
 10
14.974552
 20
151.296383
 30
0.0
 10
7.099795
 20
143.474229
 30
0.0
 10
5.065185
 20
134.608055
 30
0.0
  0
SPLINE
  5
266
100
AcDbEntity
  8
Ebene_1
 62
7
100
AcDbSpline
 70
8
 71
3
 72
8
 73
4
 74
0
 40
0
 40
0
 40
0
 40
0
 40
1
 40
1
 40
1
 40
1
 10
5.065185
 20
134.608055
 30
0.0
 10
4.742953
 20
133.203908
 30
0.0
 10
4.390587
 20
131.065230
 30
0.0
 10
4.282144
 20
129.855440
 30
0.0
  0
LWPOLYLINE
  5
267
100
AcDbEntity
  8
Ebene_1
 62
7
100
AcDbPolyline
 90
1
 70
1
 10
166.048216
 20
127.888966
 30
0.0
  0
SPLINE
  5
268
100
AcDbEntity
  8
Ebene_1
 62
7
100
AcDbSpline
 70
8
 71
3
 72
8
 73
4
 74
0
 40
0
 40
0
 40
0
 40
0
 40
1
 40
1
 40
1
 40
1
 10
226.972628
 20
148.132288
 30
0.0
 10
228.822024
 20
150.911748
 30
0.0
 10
230.141970
 20
153.640290
 30
0.0
 10
230.902146
 20
156.255183
 30
0.0
  0
SPLINE
  5
269
100
AcDbEntity
  8
Ebene_1
 62
7
100
AcDbSpline
 70
8
 71
3
 72
8
 73
4
 74
0
 40
0
 40
0
 40
0
 40
0
 40
1
 40
1
 40
1
 40
1
 10
230.902146
 20
156.255183
 30
0.0
 10
231.396817
 20
157.956816
 30
0.0
 10
231.393687
 20
158.013085
 30
0.0
 10
230.753982
 20
158.911460
 30
0.0
  0
LWPOLYLINE
  5
26a
100
AcDbEntity
  8
Ebene_1
 62
7
100
AcDbPolyline
 90
5
 70
0
 10
4.282144
 20
129.855440
 30
0.0
 10
4.084959
 20
127.655822
 30
0.0
 10
8.159980
 20
127.655822
 30
0.0
 10
12.235002
 20
127.655822
 30
0.0
 10
12.446601
 20
129.526094
 30
0.0
  0
SPLINE
  5
26b
100
AcDbEntity
  8
Ebene_1
 62
7
100
AcDbSpline
 70
8
 71
3
 72
8
 73
4
 74
0
 40
0
 40
0
 40
0
 40
0
 40
1
 40
1
 40
1
 40
1
 10
226.940257
 20
156.567966
 30
0.0
 10
225.202159
 20
154.774242
 30
0.0
 10
223.780089
 20
153.204421
 30
0.0
 10
223.780089
 20
153.079489
 30
0.0
  0
SPLINE
  5
26c
100
AcDbEntity
  8
Ebene_1
 62
7
100
AcDbSpline
 70
8
 71
3
 72
8
 73
4
 74
0
 40
0
 40
0
 40
0
 40
0
 40
1
 40
1
 40
1
 40
1
 10
223.780089
 20
153.079489
 30
0.0
 10
223.780089
 20
152.954545
 30
0.0
 10
224.052635
 20
152.405303
 30
0.0
 10
224.385737
 20
151.858950
 30
0.0
  0
SPLINE
  5
26d
100
AcDbEntity
  8
Ebene_1
 62
7
100
AcDbSpline
 70
8
 71
3
 72
8
 73
4
 74
0
 40
0
 40
0
 40
0
 40
0
 40
1
 40
1
 40
1
 40
1
 10
224.385737
 20
151.858950
 30
0.0
 10
225.235287
 20
150.465571
 30
0.0
 10
225.139607
 20
149.028777
 30
0.0
 10
223.949180
 20
145.302869
 30
0.0
  0
SPLINE
  5
26e
100
AcDbEntity
  8
Ebene_1
 62
7
100
AcDbSpline
 70
8
 71
3
 72
8
 73
4
 74
0
 40
0
 40
0
 40
0
 40
0
 40
1
 40
1
 40
1
 40
1
 10
223.949180
 20
145.302869
 30
0.0
 10
223.725208
 20
144.601847
 30
0.0
 10
223.731102
 20
144.599893
 30
0.0
 10
224.516965
 20
145.114806
 30
0.0
  0
SPLINE
  5
26f
100
AcDbEntity
  8
Ebene_1
 62
7
100
AcDbSpline
 70
8
 71
3
 72
8
 73
4
 74
0
 40
0
 40
0
 40
0
 40
0
 40
1
 40
1
 40
1
 40
1
 10
224.516965
 20
145.114806
 30
0.0
 10
224.953728
 20
145.400985
 30
0.0
 10
226.058772
 20
146.758853
 30
0.0
 10
226.972628
 20
148.132288
 30
0.0
  0
LWPOLYLINE
  5
270
100
AcDbEntity
  8
Ebene_1
 62
7
100
AcDbPolyline
 90
3
 70
0
 10
230.753982
 20
158.911460
 30
0.0
 10
230.100436
 20
159.829284
 30
0.0
 10
226.940257
 20
156.567966
 30
0.0
  0
SPLINE
  5
271
100
AcDbEntity
  8
Ebene_1
 62
7
100
AcDbSpline
 70
8
 71
3
 72
8
 73
4
 74
0
 40
0
 40
0
 40
0
 40
0
 40
1
 40
1
 40
1
 40
1
 10
139.262796
 20
144.104189
 30
0.0
 10
139.262796
 20
138.957682
 30
0.0
 10
136.546101
 20
134.785613
 30
0.0
 10
133.194887
 20
134.785612
 30
0.0
  0
SPLINE
  5
272
100
AcDbEntity
  8
Ebene_1
 62
7
100
AcDbSpline
 70
8
 71
3
 72
8
 73
4
 74
0
 40
0
 40
0
 40
0
 40
0
 40
1
 40
1
 40
1
 40
1
 10
133.194887
 20
134.785612
 30
0.0
 10
131.585577
 20
134.785610
 30
0.0
 10
130.042179
 20
135.767385
 30
0.0
 10
128.904224
 20
137.514958
 30
0.0
  0
SPLINE
  5
273
100
AcDbEntity
  8
Ebene_1
 62
7
100
AcDbSpline
 70
8
 71
3
 72
8
 73
4
 74
0
 40
0
 40
0
 40
0
 40
0
 40
1
 40
1
 40
1
 40
1
 10
128.904224
 20
137.514958
 30
0.0
 10
127.766269
 20
139.262530
 30
0.0
 10
127.126973
 20
141.632748
 30
0.0
 10
127.126973
 20
144.104189
 30
0.0
  0
SPLINE
  5
274
100
AcDbEntity
  8
Ebene_1
 62
7
100
AcDbSpline
 70
8
 71
3
 72
8
 73
4
 74
0
 40
0
 40
0
 40
0
 40
0
 40
1
 40
1
 40
1
 40
1
 10
127.126973
 20
144.104189
 30
0.0
 10
127.126973
 20
146.575630
 30
0.0
 10
127.766270
 20
148.945846
 30
0.0
 10
128.904225
 20
150.693418
 30
0.0
  0
SPLINE
  5
275
100
AcDbEntity
  8
Ebene_1
 62
7
100
AcDbSpline
 70
8
 71
3
 72
8
 73
4
 74
0
 40
0
 40
0
 40
0
 40
0
 40
1
 40
1
 40
1
 40
1
 10
128.904225
 20
150.693418
 30
0.0
 10
130.042179
 20
152.440990
 30
0.0
 10
131.585577
 20
153.422764
 30
0.0
 10
133.194887
 20
153.422763
 30
0.0
  0
SPLINE
  5
276
100
AcDbEntity
  8
Ebene_1
 62
7
100
AcDbSpline
 70
8
 71
3
 72
8
 73
4
 74
0
 40
0
 40
0
 40
0
 40
0
 40
1
 40
1
 40
1
 40
1
 10
133.194887
 20
153.422763
 30
0.0
 10
136.546100
 20
153.422761
 30
0.0
 10
139.262795
 20
149.250695
 30
0.0
 10
139.262796
 20
144.104189
 30
0.0
  0
LWPOLYLINE
  5
277
100
AcDbEntity
  8
Ebene_1
 62
7
100
AcDbPolyline
 90
1
 70
1
 10
226.972628
 20
148.132288
 30
0.0
  0
SPLINE
  5
278
100
AcDbEntity
  8
Ebene_1
 62
7
100
AcDbSpline
 70
8
 71
3
 72
8
 73
4
 74
0
 40
0
 40
0
 40
0
 40
0
 40
1
 40
1
 40
1
 40
1
 10
150.531768
 20
142.153802
 30
0.0
 10
150.531768
 20
139.460862
 30
0.0
 10
149.124907
 20
137.277802
 30
0.0
 10
147.389457
 20
137.277802
 30
0.0
  0
SPLINE
  5
279
100
AcDbEntity
  8
Ebene_1
 62
7
100
AcDbSpline
 70
8
 71
3
 72
8
 73
4
 74
0
 40
0
 40
0
 40
0
 40
0
 40
1
 40
1
 40
1
 40
1
 10
147.389457
 20
137.277802
 30
0.0
 10
146.556064
 20
137.277802
 30
0.0
 10
145.756805
 20
137.791521
 30
0.0
 10
145.167507
 20
138.705949
 30
0.0
  0
SPLINE
  5
27a
100
AcDbEntity
  8
Ebene_1
 62
7
100
AcDbSpline
 70
8
 71
3
 72
8
 73
4
 74
0
 40
0
 40
0
 40
0
 40
0
 40
1
 40
1
 40
1
 40
1
 10
145.167507
 20
138.705949
 30
0.0
 10
144.578210
 20
139.620376
 30
0.0
 10
144.247145
 20
140.860606
 30
0.0
 10
144.247145
 20
142.153802
 30
0.0
  0
SPLINE
  5
27b
100
AcDbEntity
  8
Ebene_1
 62
7
100
AcDbSpline
 70
8
 71
3
 72
8
 73
4
 74
0
 40
0
 40
0
 40
0
 40
0
 40
1
 40
1
 40
1
 40
1
 10
144.247145
 20
142.153802
 30
0.0
 10
144.247146
 20
143.446997
 30
0.0
 10
144.578210
 20
144.687227
 30
0.0
 10
145.167507
 20
145.601654
 30
0.0
  0
SPLINE
  5
27c
100
AcDbEntity
  8
Ebene_1
 62
7
100
AcDbSpline
 70
8
 71
3
 72
8
 73
4
 74
0
 40
0
 40
0
 40
0
 40
0
 40
1
 40
1
 40
1
 40
1
 10
145.167507
 20
145.601654
 30
0.0
 10
145.756805
 20
146.516082
 30
0.0
 10
146.556064
 20
147.029801
 30
0.0
 10
147.389457
 20
147.029801
 30
0.0
  0
SPLINE
  5
27d
100
AcDbEntity
  8
Ebene_1
 62
7
100
AcDbSpline
 70
8
 71
3
 72
8
 73
4
 74
0
 40
0
 40
0
 40
0
 40
0
 40
1
 40
1
 40
1
 40
1
 10
147.389457
 20
147.029801
 30
0.0
 10
149.124907
 20
147.029801
 30
0.0
 10
150.531768
 20
144.846741
 30
0.0
 10
150.531768
 20
142.153801
 30
0.0
  0
LWPOLYLINE
  5
27e
100
AcDbEntity
  8
Ebene_1
 62
7
100
AcDbPolyline
 90
1
 70
1
 10
139.262796
 20
144.104189
 30
0.0
  0
SPLINE
  5
27f
100
AcDbEntity
  8
Ebene_1
 62
7
100
AcDbSpline
 70
8
 71
3
 72
8
 73
4
 74
0
 40
0
 40
0
 40
0
 40
0
 40
1
 40
1
 40
1
 40
1
 10
134.541820
 20
150.449278
 30
0.0
 10
135.158062
 20
150.802419
 30
0.0
 10
135.884773
 20
150.575488
 30
0.0
 10
136.512977
 20
149.833741
 30
0.0
  0
SPLINE
  5
280
100
AcDbEntity
  8
Ebene_1
 62
7
100
AcDbSpline
 70
8
 71
3
 72
8
 73
4
 74
0
 40
0
 40
0
 40
0
 40
0
 40
1
 40
1
 40
1
 40
1
 10
136.512977
 20
149.833741
 30
0.0
 10
137.141180
 20
149.091994
 30
0.0
 10
137.601259
 20
147.917631
 30
0.0
 10
137.760912
 20
146.648358
 30
0.0
  0
LWPOLYLINE
  5
281
100
AcDbEntity
  8
Ebene_1
 62
7
100
AcDbPolyline
 90
1
 70
1
 10
150.531768
 20
142.153801
 30
0.0
  0
SPLINE
  5
282
100
AcDbEntity
  8
Ebene_1
 62
7
100
AcDbSpline
 70
8
 71
3
 72
8
 73
4
 74
0
 40
0
 40
0
 40
0
 40
0
 40
1
 40
1
 40
1
 40
1
 10
147.627809
 20
145.761285
 30
0.0
 10
148.009373
 20
145.911741
 30
0.0
 10
148.459337
 20
145.815054
 30
0.0
 10
148.848306
 20
145.499027
 30
0.0
  0
SPLINE
  5
283
100
AcDbEntity
  8
Ebene_1
 62
7
100
AcDbSpline
 70
8
 71
3
 72
8
 73
4
 74
0
 40
0
 40
0
 40
0
 40
0
 40
1
 40
1
 40
1
 40
1
 10
148.848306
 20
145.499027
 30
0.0
 10
149.237276
 20
145.183001
 30
0.0
 10
149.522147
 20
144.682656
 30
0.0
 10
149.621000
 20
144.141874
 30
0.0
  0
LWPOLYLINE
  5
284
100
AcDbEntity
  8
Ebene_1
 62
7
100
AcDbPolyline
 90
3
 70
0
 10
137.760912
 20
146.648358
 30
0.0
 10
135.567463
 20
146.474026
 30
0.0
 10
134.541820
 20
150.449278
 30
0.0
  0
LWPOLYLINE
  5
285
100
AcDbEntity
  8
Ebene_1
 62
7
100
AcDbPolyline
 90
3
 70
0
 10
149.621000
 20
144.141874
 30
0.0
 10
148.262869
 20
144.067593
 30
0.0
 10
147.627809
 20
145.761285
 30
0.0
  0
ENDSEC
  0
SECTION
  2
OBJECTS
  0
DICTIONARY
  5
C
330
0
100
AcDbDictionary
  3
ACAD_GROUP
350
D
  3
ACAD_MLINESTYLE
350
17
  0
DICTIONARY
  5
D
330
C
100
AcDbDictionary
  0
DICTIONARY
  5
1A
330
C
100
AcDbDictionary
  0
DICTIONARY
  5
17
330
C
100
AcDbDictionary
  3
STANDARD
350
18
  0
DICTIONARY
  5
19
330
C
100
AcDbDictionary
  0
ENDSEC
  0
EOF
